Lovehatehero - Ill Make It To The Brigades tab

Ill Make It To The Brigades
LoveHateHero
White Lies

GTR1 - CGCFAD 
GTR2 - CGCFAD

Intro GTR1|-------------------------|-----------------------||-------------------------|-----------------------||-----8-8-8-8-----6-6-6-6-|-----8-8-8-8-----------||-6-6---------6-6---------|-6-6---------6-6-x-4---||-6-6---------6-6---------|-6-6---------6-6-x-4---||-6-6---------6-6---------|-6-6---------6-6-x-4---|
|-------------------------|-------------------------||-------------------------|-------------------------||-----4-4-4-4-------------|-----6-6-6-6-----8-8-8-8-||-2-2---------2-2-4-4-4-4-|-4-4---------4-4---------||-2-2---------2-2---------|-4-4---------4-4---------||-2-2---------2-2---------|-4-4---------4-4---------|
|-------------------------|-----------------------||-------------------------|-----------------------||-----8-8-8-8-----6-6-6-6-|-----8-8-8-8-----------||-6-6---------6-6---------|-6-6---------6-6-x-4---||-6-6---------6-6---------|-6-6---------6-6-x-4---||-6-6---------6-6---------|-6-6---------6-6-x-4---|
|-------------------|--------------------------||-------------------|-----5*5*5*5*-------------||-------------------|--------------------------||-2-2--x--2--x--2-2-|-4-4-x-x-x-x--4-4-4/6-6-6-||-2-2--x--2--x--2-2-|-4-4-x-x-x-x--4-4-4/6-6-6-||-2-2--x--2--x--2-2-|-4-4-x-x-x-x--4-4-4/6-6-6-|
GTR2|-------------------------|-----------------------||-------------------------|-----------------------||-------------------------|-----------------------||-6-6-9-9-9-9-6-6-8-8-8-8-|-6-6-9-9-9-9-6-6-x-4---||-6-6---------6-6---------|-6-6---------6-6-x-4---||-6-6---------6-6---------|-6-6---------6-6-x-4---|
|-------------------------|-------------------------||-------------------------|-------------------------||-------------------------|-------------------------||-2-2-6-6-6-6-2-2-4-4-4-4-|-4-4-8-8-8-8-4-4-9-9-9-9-||-2-2---------2-2---------|-4-4---------4-4---------||-2-2---------2-2---------|-4-4---------4-4---------|
|-------------------------|-----------------------||-------------------------|-----------------------||-------------------------|-----------------------||-6-6-9-9-9-9-6-6-8-8-8-8-|-6-6-9-9-9-9-6-6-x-4---||-6-6---------6-6---------|-6-6---------6-6-x-4---||-6-6---------6-6---------|-6-6---------6-6-x-4---|
|-------------------|--------------------------||-------------------|--------------------------||-------------------|--------------------------||-2-2--x--2--x--2-2-|-4-4-x-x-x-x--4-4-4/6-6-6-||-2-2--x--2--x--2-2-|-4-4-x-x-x-x--4-4-4/6-6-6-||-2-2--x--2--x--2-2-|-4-4-x-x-x-x--4-4-4/6-6-6-|
VerseGTR1|--------------------------------------------------||--------------------------------------------------||--------------------------------------------------||-2-2--2-2-2--4-4--4-4-4--6-6--x--6-6--6-6-6-4-4-4-||-2-2--2-2-2--4-4--4-4-4--6-6--x--6-6--6-6-6-4-4-4-||-2-2--2-2-2--4-4--4-4-4--6-6--x--6-6--6-6-6-4-4-4-|
|---------------------------------------------------------------------||---------------------------------------------------------------------||-13--8--11--6---6-6-8-6--4-4--4-4--6-6--6-6--6/8/6---4---8-8-8-6-4-3-||---------------------------------------------------------------------||-11--6--9---4---4-4-6-4--2-2--2-2--4-4--4-4--4/6/4---2---6-6-6-4-2-1-||---------------------------------------------------------------------|
|----------------------------------||----------------------------------||-13-13-13-8--8/11-11-11-6/8/6---4-||----------------------------------||-11-11-11-6--6/9--9--9--4/6/4---2-||----------------------------------|
GTR2|--------------------------------------------------||--------------------------------------------------||--------------------------------------------------||-2-2--2-2-2--4-4--4-4-4--6-6--x--6-6--6-6-6-4-4-4-||-2-2--2-2-2--4-4--4-4-4--6-6--x--6-6--6-6-6-4-4-4-||-2-2--2-2-2--4-4--4-4-4--6-6--x--6-6--6-6-6-4-4-4-|
|------------------------------------------------||------------------------------------------------||------------------------------------------------||-2-2--2-2-2--4-4--4-4-4--2-2--2-2-2--2-2--2-2-2-||-2-2--2-2-2--4-4--4-4-4--2-2--2-2-2--2-2--2-2-2-||-2-2--2-2-2--4-4--4-4-4--2-2--2-2-2--2-2--2-2-2-|
|---------------------------------------------------||---------------------------------------------------||---------------------------------------------------||-4-4--4-4-4--1-1--1-1-1--6-6--6-6-6--9-9--9-9-9--2-||-4-4--4-4-4--1-1--1-1-1--6-6--6-6-6--9-9--9-9-9--2-||-4-4--4-4-4--1-1--1-1-1--6-6--6-6-6--9-9--9-9-9--2-|
Pre ChorusGTR1|-------------||-------------||-/4-3-4-/6-4-||-------------||-------------||-------------|
GTR2|--------------||-/4-2-4-/5-4--||--------------||--------------||--------------||--------------|
ChorusGTR1|---2---------------------------|---2------------------------------------||-----4--4-4-4---2--------------|-----4--4-4-4---2-2-2-----2-2-2-----2-2-||-1------------4---3--3-4-3-1-3-|-1------------4-------4-4-------4-4-----||-------------------------------|----------------------------------------||-------------------------------|----------------------------------------||-------------------------------|----------------------------------------|
GTR2|-----------------------------------------------------------------------------||-----------------------------------------------------------------------------||-----------------------------------------------------------------------------||-6-6-2-2--2-2-2--9-9-4-4--4-4-4--6-6-2-2--2-2-2--2/4-4-4-2-2/4-4-4-2-2/4-4-4-||-6-6-2-2--2-2-2--9-9-4-4--4-4-4--6-6-2-2--2-2-2--2/4-4-4-2-2/4-4-4-2-2/4-4-4-||-6-6-2-2--2-2-2--9-9-4-4--4-4-4--6-6-2-2--2-2-2--2/4-4-4-2-2/4-4-4-2-2/4-4-4-|
Repeat Intro Repeat Verse Repeat Pre Chorus Repeat Chorus Bridge GTR1
|----------------------------------------||---------------------7----9----11----12-||-4----4/6----6/4------------------------||----------------------------------------||----------------------------------------||----------------------------------------|
GTR2|-----------------------------------------------------------------||-------------------------------------------------4-----4-----4---||-4---4---4---4---4---4---4---4---6---6---6---6-----6-----6-----6-||---4---4---4---4---4---4---4---4---4---4---4---4-----4-----4-----||-----------------------------------------------------------------||-----------------------------------------------------------------|
|-----------------------------------------------------------------||-----------------------------------------------------------------||-4---4---4---4---4---4---4---4---4---4---4---4---4---4---4---4---||---4---4---4---4---4---4---4---4---4---4---4---4---4---4---4---4-||-----------------------------------------------------------------||-----------------------------------------------------------------|
ThenGTR1|-----------------------------------------------------------------------------||-----------------------------------------------------------------------------||-----8-8-8-8-8-8-8-8-8-8-8-8-8-8-8-8---------8-8-8-8-8-8-8-8-6-6-6-6-6-6-6-6-||-6-6---------------------------------6-6-6-6---------------------------------||-6-6---------------------------------6-6-6-6---------------------------------||-6-6---------------------------------6-6-6-6---------------------------------|
|-----------------------------------------------------------------------------||-----------------------------------------------------------------------------||---------4-4-4-4-4-4-4-4-4-4-4-4-4-4-----------------------------------------||-2-2-2-2-----------------------------2-2-2-2-4-4-4-4-4-4-4-4-4-4-4-4-4-4-4-4-||-2-2-2-2-----------------------------2-2-2-2---------------------------------||-2-2-2-2-----------------------------2-2-2-2---------------------------------|
GTR2|-----------------------------------------------------------------------------||-----------------------------------------------------------------------------||-----------------------------------------------------------------------------||-6-6-9-9-9-9-9-9-9-9-9-9-9-9-9-9-9-9-6-6-6-6-9-9-9-9-9-9-9-9-8-8-8-8-8-8-8-8-||-6-6---------------------------------6-6-6-6---------------------------------||-6-6---------------------------------6-6-6-6---------------------------------|
|-----------------------------------------------------------------------------||-----------------------------------------------------------------------------||-----------------------------------------------------------------------------||-2-2-2-2-6-6-6-6-6-6-6-6-6-6-6-6-6-6-2-2-2-2-4-4-4-4-4-4-4-4-4-4-4-4-4-4-4-4-||-2-2-2-2-----------------------------2-2-2-2---------------------------------||-2-2-2-2-----------------------------2-2-2-2---------------------------------|
Repeat ChorusFinal ChorusGTR1|---4---------------------------|---4------------------------------------||-----6--6-6-6---4--------------|-----6--6-6-6---4-4-4-----4-4-4-----4-4-||-3------------6---5--5-6-5-3-5-|-3------------6-------6-6-------6-6-----||-------------------------------|----------------------------------------||-------------------------------|----------------------------------------||-------------------------------|----------------------------------------|
GTR2|-------------------------------------------------------------------------------||-------------------------------------------------------------------------------||-------------------------------------------------------------------------------||-8-8-4-4--4-4-4--11-11-6-6--6-6-6--8-8-4-4--4-4-4--4/6-6-6-4-4/6-6-6-4-4/6-6-6-||-8-8-4-4--4-4-4--11-11-6-6--6-6-6--8-8-4-4--4-4-4--4/6-6-6-4-4/6-6-6-4-4/6-6-6-||-8-8-4-4--4-4-4--11-11-6-6--6-6-6--8-8-4-4--4-4-4--4/6-6-6-4-4/6-6-6-4-4/6-6-6-|
Tap to rate this tab
 
# A B C D E F G H I J K L M N O P Q R S T U V W X Y Z