Lovehatehero - Goodbye My Love tab version 2

Intro/Verse part 1

(0:00-0:18)|-----7p0-----7p0---------10p0-------------7p0-----7p0-----------------||---------8p0-----8p0-7p0----------------------8p0-----8p0-7p0-3p0-----||----------------------------------------------------------------------||-5----------------------------------9---------------------------------||-3----------------------------------7---------------------------------||----------------------------------------------------------------------|
Verse part 2(0:18-0:26)|---------------------------------------------------------||---------------------------------------------------------||-7-77-777-777-77-11-1111-1111-121212-1212----------------||-5-55-555-555-55--x--x-x--x-x--x-x-x--x-x----------------||-3-33-333-333-33--9--9-9--9-9-101010-1010----------------||---------------------------------------------------------|
|-------------------------------------------||-------------------------------------------||-------------------------------------------||-2p0-2-000-2p0-2-000-2p0-2-000-2p0-2-000---||-2p0-2-000-2p0-2-000-2p0-2-000-2p0-2-000---||-2p0-2-000-2p0-2-000-2p0-2-000-2p0-2-000---|PM ... ... ... ...
Prechorus(0:26-0:31)|---7p0-5p0-8----7p0-5p0-8----7p0-5p0-8---7p0--------------||---------------------------------------------7------------||----------------------------------------------------------||----------------------------------------------------------||-3------------3------------5-----------5------------------||----------------------------------------------------------|
Chorus(0:31-0:48)|---------------------------------||---------------------------------||-12---------------11-------------||--9----------------x-------------| (x4)|--7---------------14-------------||---------------------------------|
Postchorus/Verse parts(0:48-0:52)|----------------------------------------------------------|-------8---7------------8---7--------------8---7----------|---11--------11----11---------11------11---------11-------|--9--9---9--------9--9----9----------9--9----9------------|-7--------------7------------------5----------------------|---------------------------------------------------------- .. . . . . . . . . . .
|----------------------------------------------------------|-------8---7----------------------------------------------|---11--------11-------------------------------------------|--9--9---9------------------------------------------------|-3--------------------------------------------------------|---------------------------------------------------------- .. . .
REPEAT INTRO (0:53-1:05)
|-----7p0-----7p0---------10p0-------------7p0-----7p0-----------------||---------8p0-----8p0-7p0----------------------8p0-----8p0-7p0-3p0-----||----------------------------------------------------------------------||-5----------------------------------9---------------------------------||-3----------------------------------7---------------------------------||----------------------------------------------------------------------|
Verse 2 variation (1:05-1:23)
|-----------------------------------------------------------------||----------------8---------7-----7-8------------------------------||------11-----11-------------------------------11---------11--12--||----9------9------------9-----9------------9----------9----------||-7-7-7--777-7--7-77--5-5-5-555-5-5-55----------------------------||--------------------------------------10-10-10--101010-10--10----| . . . ... . . .. . . . ... . . .. pm pm pm pmpmpm pm pmREPEAT CHORUS(1:23-1:40)
|---------------------------------||---------------------------------||-12---------------11-------------||--9----------------x-------------| (x4)|--7---------------14-------------||---------------------------------|
Verse 3(1:40-1:44)|---------------------------------||----------7----------------------||---------------------------------| (x4)|----55---------------------------||-33----66------------------------||---------------------------------| .. .. ..
Verse 4(1:44-2:11)|----------------------------------||----------------------------------||------12--------------------------||--9---9-(x3)----------------------||--7---7---------------------------||----------------(pickslide)--then slide down from 12
(on the second time instead of picksliding you pitch harmonic 9 then 7)
|----------------------------------||----------------------------------||------------4-5-4-4h5p4-----------|(x2)|-------555--------------5---------||--333---------------------5-------||----------------------------------| ... ...
REPEAT CHORUS (2:11-2:32)
|---------------------------------||---------------------------------||-12---------------11-------------||--9----------------x-------------| (x4)|--7---------------14-------------||---------------------------------|
Solo (2:32-3:09)
Part 1|----------------------------------12h15p12------------17p15p12-(x8)--||-----------/13-12-13-15b-15b-15b----------15p12-(x4)-----------------||-/12-11-12-----------------------------------------------------------||---------------------------------------------------------------------||---------------------------------------------------------------------||---------------------------------------------------------------------|
Part 2|-19-17-15h17p15---17--17----------------------||----------------19--19--19-17p15h17b~-(x2)----||----------------------------------------------||----------------------------------------------||----------------------------------------------||----------------------------------------------|
|----------15-17-19-17-15--------------------------------------------||-15-17-19----------------19-17-15-----------------------------------||----------------------------------[17-16-14-------------------------||-------------------------------------------17-16-14-(x2)]-----------||-----------------------------------------------------------14-12-14-||--------------------------------------------------------------------|
Part 3|----------------------------------------------||--------/15-12-/17\---------------------------||-/12-11-------------/12-11--14-12-11----------||------------------------------------11--------||----------------------------------------------||----------------------------------------------|
|-------------------12-14-14h15p14-14-12-------||----------12-13-15----------------------------||-11-12-14-------------------------------------||----------------------------------------------||----------------------------------------------||----------------------------------------------|
|----------------------------------------------||-15-13-12-------------------------------------||----------12-11-9-----------/11*-/12*---------||------------------12-10-9---------------------||----------------------------------------------||----------------------------------------------|
Part 4(Tap)|-t19p12h15-(x4)-t20p12h15-(x4)-t17p10h14-(x4)-t19p10h14-(x4)--||--------------------------------------------------------------||--------------------------------------------------------------||--------------------------------------------------------------||--------------------------------------------------------------||--------------------------------------------------------------|
|-t15p8h12-(x4)-t17p8h12-(x4)-t17/19p8h12-(x8)-----------------||--------------------------------------------------------------||--------------------------------------------------------------||------------------------------------------------2-------------||------------------------------------------------2-------------||------------------------------------------------2-------------|
Ending Chorus (3:09-3:30)
|---------------------------------||---------------------------------||-12---------------11-------------||--9----------------x-------------| (x4)|--7---------------14-------------||---------------------------------|
There you go guys enjoy!!! Any corrections tell me. youtube.com/nightmarepablo
Tap to rate this tab
 
# A B C D E F G H I J K L M N O P Q R S T U V W X Y Z