Mago De Oz - La Ultima Cena tab

IntroX4-----------------------------------------------------------10-11-10-8----8----------10-11-10-8---------------------------------10---10-9----------------10-9-7----------------------------------------------------------------------------------------------------------------------------------------------------------------------------------------
luego.... (riff #1) X4--------------------------------------------------------------------------------------------------------------------------7----7------7----7--5------------------------------------7----7------7----7--5------------------------------------5----5------5----5--3-------------------------------------------------------------------------------------
Verso 1 -estaban todos sentados en la barra de algún bar -era martes por la noche y ya dormía la ciudad -antes de marcharme dijo "os tengo que prevenir" -van a asesinarme y a todos van a perseguir ---------------------------------------------------------- ----------------------------------------------------------
--------7----7------7----7--5-------------------------------------7----7------7----7--5-------------------------------------5----5------5----5--3---------------------------------------------------------------------------------------
Coro 1-hoy ninguno de vosotros me ha de traicionar-buscad al que usa mi nombre, él me venderá--------------------------------------------------------------10-11-10-8----8-------------------10-11-10-----------------------------10---10-9-----9-10-12-------------------------------------------------12-----------------------------------------------------------------------------------------------------------------------------------------------------------
-------------------------------------------------------------10-11-10-8----8-------------------------------------------------------10---10-9-------------------------------------------------------------12--10-12-10-12~~----------------------------------------------------------------------------------------------------------------------------------------
parte de violínX2-------------------------------------------------------------10-11-10-8-10-8-----------------10-11-10-----------------------------------10-9----9-10-12-------------------------------------------------12--------------------------------------------------------------------------------------------------------------------------------------------------------
-------------------------------------------------------------10-11-10-8-10-8------------------------------------------------------------10-9--------9-10-9-----------------------------------------------10-12--------10-12---------------------------------------------------------------------------------------------------------------------------------------
*riff # 1 X2 *Verso 2 (igual) -levantando su cerveza dijo brindad y bebed -haced esto en mi memoria y hablad de mí en carabanchel -bienaventurados los que roban pa´poder comer -y los insumisos, y los que luchan contra el poder *coro 2 (igual) *parte de violín X3 *solo de guitarra
13-13-13-13-12-10-12-10----10---------------8-7----------------------------------13-------------8-10-----10---------------------------------------7-9-10----------------------------------------------------------------------------------------------------------------------------------------------------------------------------------------------
13-13-13-13-12-10-12-10----10--------------10------------------------------------13--------10-11-13----13-11-10---------------------------------------------------------------------------------------------------------------------------------------------------------------------------------------------------------------------------------------
22-22-22-22-21-18-21-18-17-18---------18-20-18-------------------------------------------20-22-----------22-20-19-------------------------------------------------------------------------------------------------------------------------------------------------------------------------------------------------------------------------------------
22-22-22-22-21-18-21-18-17-18-------------------------------------------------------------------------20-----------20-22---------------------------------19-21-22----22-21--22------------------------------------------------------------------------------------------------------------------------------------------------------------------------------------------
--18------------------19b~~---------------19b~~-----------------22-21---------------------------------------------------------------------------------------------------------------------------------------------------------------------------------------------------------------------------------------------------------------------------------------------
*Verso 3 (igual) -cuando terminó la cena fueron al retiro a andar -Pedro dijo "oye maestro yo no te voy a negar" -de repente un ruido sordo despertó a los demás -dos hombres con traje negro dispararon a matar *Coro 3 (igual) *parte de violín X4
parte final------------------------------------------------------------------------------------------------------10----------------7----7---------9-10-12-10-9----9-10-12----12-10----------7----7------12-------------------------------------------5----5------------------------------------------------------------------------------------------------------
y luego.........--------------------------------------------------------------------------------------10-----------10-11-13-11-10--------9-10-12-10-9--9-10-12----12-10--12--------------------12---------------------------------------------------------------------------------------------------------------------------------------------------------------------
--------------10-12-10-----------10~~----------------------------11-13-------------13---------------------------------------------------------------7--------------------------------------------------------7--------------------------------------------------------5-------------------------------------------------------------------------------
Tap to rate this tab
 
# A B C D E F G H I J K L M N O P Q R S T U V W X Y Z