Mago De Oz - La Danza Del Fuego tab

esto es pa lo gente no peta
intro F-C-am-dm

intro (violín)X2 (en la 2a vez con acordes destorsionados)---------------------------------------------------------|---------------------------------------------------------|--7-9-10--9-7--------7-9-7----7-9-10--9-7-----9-7-----7--|--------------10--10----------------------10-------10----|---------------------------------------------------------|---------------------------------------------------------|
----------------------------------------------------------|------------------------------------------8--10-8---------|--7-9-10--9-7--------7-9-7----7-9-10--9-7----------9-7~---|--------------10--10--------------------------------------|----------------------------------------------------------|----------------------------------------------------------|
verso 1 dm am cuanto mas he de esperar dm am cuanto más he de buscar F C para poder encontrar F C dm la luz que se que hay en mi dm am he vivido en soledad dm am rodeado de multitud F C nunca he conseguido amar F C dm pues no me quiero ni yo
violín (lento)X3----------------------------------------------------------|----------------------------------------------------------|--10-7-----10-7------------9-------9----------------------|-------7--------7------------10------10-------------------|-----------------------------10------10-------------------|----------------------------------------------------------|
Despues----------------------------------------------------------|----------------------------------------------------------|--------10---------------9--7----10-9-7-------------------|------------10--7----10-----------------------------------|------------------10--------------------------------------|----------------------------------------------------------|
coro 1 -cuando veas una estrella fugaz -guardala en tu corazón -es el alma de alguien que consiguió -dar a los suyos su amor -Cuando oigas a un niño preguntar -Por qué el sol viene y se va, -Dile: porque en esta vida no hay -Luz sin obscuridad
----------------------------------------------------------|----------------------------------------------------------|----10-10----------------------7--7-----------------------|----10-10----10-10----10-10----7--7-------por 2-----------|----8--8-----10-10----10-10----5--5-----------------------|-------------8--8-----8--8--------------------------------|
violín parte 2----------------15----------------------------------------|-15-17-18-18-18----18-17-15---------------15-17-15--------|----------------------------17--17-17-17------------------|----------------------------------------------------------|----------------------------------------------------------|----------------------------------------------------------|
----------------15----------------------------------------|-15-17-18-18-18----18-17-15------17-15-----17-15------15--|----------------------------17---------17--------17-------|----------------------------------------------------------|----------------------------------------------------------|----------------------------------------------------------|
----------------15----------------------------------------|-15-17-18-18-18----18-17-15---------------15-17-15--------|----------------------------17--17-17-17------------------|----------------------------------------------------------|----------------------------------------------------------|----------------------------------------------------------|
----------------15-------15-17--17-15---------------------|-15-17-18-18-18----18-17--------------18--17-18-17-15-----|----------------------------------------------------------|----------------------------------------------------------|----------------------------------------------------------|----------------------------------------------------------|
verso 2-si eres capaz de devolver-con una sonrisa una traición-Si eres capaz de dar tu mano a quien-con la suya te señaló------------------------------------------------------------|------------------------------------------------------------|----7--7----------------------------------------------------|----7--7----8--8----10--10----10--10------------------------|----5--5----8--8----10--10----10--10------------------------|------------6--6-----8---8-----8---8------------------------|------------------------------------------------------------|
-No eches raíces en un sitio, muévete-Pues no eres un árbol, para eso tienes dos pies-El hombre más sabio-es el que sabe que su hogar,-es tan grande como pueda imaginar-----------------------------------------------------------|-----------------------------------------------------------|---------------------5--5----5--5--------------------------|----3--3----3--3-----5--5----5--5--------------------------|----3--3----3--3-----3--3----3--3--------------------------|----1--1----1--1-------------------------------------------|
coro 2 (igual) *parte 2 del violin
Parte 3 de violin---------------------------------15------------------------|--18-15----------15--18-15----18----18-17-15----15-17------|--------14----14-----------14----------------17------------|-----------15----------------------------------------------|-----------------------------------------------------------|-----------------------------------------------------------|
---------------------------------12------------------------|--15----------------15--------15----15-13----------13------|-----14----------14----14-----------------15-14-15---------|--------15-12-15----------15-------------------------------|-----------------------------------------------------------|-----------------------------------------------------------|
-------------15--------------------------------------------|---------18------17--13----15-15-15-15-13-15---------------|-----------------------------------------------------------|-----------------------------------------------------------|-----------------------------------------------------------|-----------------------------------------------------------|
*solo de guitarra -el mejor dia es en el que el alma tiene hambre y sed -no olvides lo aprendido, no dejes de comprender -rodeate de buenos y tu lo pareceras -rodeate de sabios y algo en ti se quedará ( esto con palm muting ) X2
-----------------------------------------------------------|-----------------------------------------------------------|-----------------------------------------------------------|-----------------------------------------------------------|----3--5-5-5--3--5-5-5--5--3-3-3--3--5~~-------------------|-----------------------------------------------------------|
-----------------------------------------------------------|-----------------------------------------------------------|----10--9--7--5----5-5-5-5-5-5-5---------------------------|----10--9--7--5----5-5-5-5-5-5-5---------------------------|----8---7--5--3----3-3-3-3-3-3-3---------------------------|-----------------------------------------------------------|
*coro 3 (X2)(igual que los demás) en la segunda vez entra la parte 2 de violin *parte 3 del violin -luz en la ocuridad!!!!!!!!!!!!!!! espero les guste!!!!!!!!!!!!!!
Tap to rate this tab
 
# A B C D E F G H I J K L M N O P Q R S T U V W X Y Z