Mago De Oz - Dime Con Quien Andas tab

Intro

-----------------------------------------------|---5-3-5---3---3----------5-3-5---3---3--------|---------5---5---5-4------------5---5---5-4----|-----------------------------------------------|-0----------------------0----------------------|-----------------------------------------------|
-----------------------------------------------|---5-3-5---3---3----------5-3-5---3---3--------|---------5---5---5-4------------5---5---5-4----|------------------------0----------------------|-3---------------------------------------------|-----------------------------------------------|
Riff del verso 1 (empieza en 0:13) X2
------------------------------------------------------|-------1------3-0h1p0--------------1------3-0h1p0-----|-----2------2---------2----------2------2---------2---|---2------2-------------2------2------2-------------2-|-0---------------------------0------------------------|------------------------------------------------------|
------------------------------------------------------|-------1------3-0h1p0--------------1------3-0h1p0-----|-----2------2---------2----------2------2---------2---|---2------2-------------2------2------2-------------2-|-0---------------------------0------------------------|------------------------------------------------------|
-------------------------------------------------------|-------1------3-0h1p0---------------1------3-0h1p0-----|-----2------2---------2-----------2------2---------2---|---2------2-------------2----0--2------2-------------2-|-3-----------------------------------------------------|-------------------------------------------------------|
Si oyes en la noche la voz De la soledad y el rumor Que ha llegado el tiempo De ser dos... Aquí estoy!!! Ten mi mano, apriétala bien. Ten mi hombro, apóyate en él, Y adonde nos lleve el viaje iré Riff (0:50) X2
----------------------------------|--------1---------0---------------|------0---------0---------2--2----|----2---------0-----------2--2----|--3---------2----------0----------|----------------------------------|Contigo iré
CORO 1 (parte de violín) se oye detras de la guitarra
----------------------------------|-----------------3----------------|--2--5-4-5---4-5-----5-4-5-4-0----|----------------------------------|----------------------------------|----------------------------------| Am C D AmY en tu descanso seré el reposo
----------------------------------|-------------------3---5-3-5------|--0-2--5-4-5---4-5----------------|----------------------------------|----------------------------------|----------------------------------| Am C D AmY en tu camino seré el andar
----------------------------------|-----------------3----------------|--2--5-4-5---4-5-----5-4-5-4-0----|----------------------------------|----------------------------------|----------------------------------|
Am C D AmY al sol mandé avisar a la brisa----------------------------------|-----------------3----------------|--2--5-4-5---4-5-----5-4-5-4-0----|----------------------------------|----------------------------------|----------------------------------| Am C D AmQue hagan saber nuestro caminar
SOLO DE VIOLIN (1:22)
----------------8--7-8-10--8-7-8-7-------|-------------10--------------------10-8--|------7-9-10-----------------------------|-7-10------------------------------------|-----------------------------------------|-----------------------------------------|
-------------7-8--7-8-10--8-10-12--10-12-15--12-15-17~-|---10-10--10-------------------------------------------|-9-----------------------------------------------------|-------------------------------------------------------|-------------------------------------------------------|-------------------------------------------------------|
-17-15----17-15----17-15----17-15----17-15-----|-------17-------17-------17-------17-------17--|-----------------------------------------------|-----------------------------------------------|-----------------------------------------------|-----------------------------------------------|
-15-----------------------------------------------|----17-15-----------------------------------------|----------16-16h17p16-14-12-----------------12-14-|----------------------------12-14--14-12-14-------|--------------------------------------------------|--------------------------------------------------|
--------------------12-----------------------------------|-13-12----15--13-15----15-13-12-15--13-12----------------|-------14---------------------------------14-12----14-14-|------------------------------------------------14-------|---------------------------------------------------------|---------------------------------------------------------|
Parte pesada con violin (1:47) X3
------------12-10-12----10-12-13-12h13p12~--|---------------------13---------------------|--------------------------------------------|----5--7------------------------------------|----5--7------------------------------------|----3--5------------------------------------|
VERSO 2 (1:57)
----------------------------------------|----------------------------------------|----------------------------------------|--7xx-7xx-7xx--------7xx-7xx-7xx--------|--7xx-7xx-7xx--------7xx-7xx-7xx--------|--5xx-5xx-5xx-5-3~~--5xx-5xx-5xx-5-3~~--|No es más rico el que tiene másSi no el que menos sabe necesitar
----------------------------------------|----------------------------------------|--5xx-5xx-5xx-5xx--7xx-7--5--4----------|--5xx-5xx-5xx-5xx--7xx-7--5--4----------|--3xx-3xx-3xx-3xx--5xx-5--3--2----------|----------------------------------------|Y si tu tienes a alguienJunto a ti... rico serás.
*aqui los riffs son iguales Una mirada bastará Una palabra servirá Para poner mi corazón en pie ¡¡¡Aquí está!!!. (2:25) X2 (sin distorsión)
----------------------------------|--------1---------0---------------|------0---------0---------2--2----|----2---------0-----------2--2----|--3---------2----------0----------|----------------------------------|
CORO 2
------------------|------------------|-----5------------|--7--5--5--7------|--7--3--5--7------|--5-----3--5------|Y en tu descanso seré el reposoY en tu camino seré el andarY al sol mandé avisar a la brisaQue hagan saber nuestro caminar
(2:55) el mismo tono pero bajando octavas
-----------|-----------|-----7~~~--|-----------|-----------|-----------|
solo de guitarra (3:06)
---------------------------------------|---------------------------------------|-7-9-10-9~-9~-9~-7-----------9~-9~-9~--|-------------------10-9-7-10-----------|---------------------------------------|---------------------------------------|
---------------------------------|---------------------------------|-7-9-10-9~-9~-9~-7-----------9~--|-------------------10-9-7-10-----|---------------------------------|---------------------------------|
---------------------------------------------------|---------------------------------------------------|-9-10-9-7-9~--7-----------------------7^^----------|----------------10-9-10-9----7~--7-10-----7-10-7-7-|--------------------------10-----------------------|---------------------------------------------------|
-----------------------------------------------------|--------8-----------------------10h12p10-------------|----7-9---9~---------------9-12----------12-9----12~-|-10----------10-7----7s10---------------------12-----|------------------10---------------------------------|-----------------------------------------------------|
----------------------------------|-13-13-13-12-10-12----------------|--------------------9-10-9----9~--|---------------------------10-----|----------------------------------|----------------------------------|
(3:55) X3
------------12-10-12----10-12-13-12h13p12~--|---------------------13---------------------|--------------------------------------------|----5--7------------------------------------|----5--7------------------------------------|----3--5------------------------------------|
VERSO 3 (igual que el 1) CORO 3 (igual al 2) DISFRUTENLO!!!!!!!!!!!!!!
Tap to rate this tab
 
# A B C D E F G H I J K L M N O P Q R S T U V W X Y Z