Mago De Oz - El Balsamo De Fierabras tab

esta rola es una de mis favoritas del cd la leyenda de la mancha de este excelente
grupo espaƱol, pues bueno, ahi tienen!

this song is one of my favorite songs on the "la leyenda de la mancha" of this awesome
spanish band, enjoy!

INTRO (0:00) :

This scale is quitte dificult, its played offen in palm mute
Esta escala es algo dificil, pueden tocarla con palm mute

1|-----------------------| 2|-----------------------| 3|-------------------9---| 4|-------------------9---| X4 5|--7-6-5------------7---| 6|--------7-6-5-4-0--7---|
then you play this luego tocas esto:
1|------------------------|2|------------------------|3|------------------------|4|------------------------|5|------------------------|6|---0-3-5-0--------------|
Verse 1 / Verso 1: Cuando tu cabeza sientas latir mas q el corazon
1|------------------------|2|------------------------|3|-----------9------------| X24|-----------9------------|5|-----------7------------|6|----0-3-0--7------------|
Y tus piernas no reciban estimulos ni informacion:
1|------------------------|2|------------------------|3|-----------9------------|4|-----------9------------| X25|-----------7------------|6|----0-3-0--7------------|
Si tus espaldas no pueden soportar
1|-----------------------|2|-----------------------|3|-----------------------|4|-7---------------------|5|-7---------------------|6|-5---------------------|
el peso de tus hombros al caminar
1|-----------------------|2|-----------------------|3|-----------------------|4|-9---------------------|5|-9---------------------|6|-7---------------------|
Se de un remedio
1|-----------------------|2|-9---------------------|3|-9-9--7----------------| [lo de 55357 se toca cuando dice "se de un remed"4|-7-9--7----------------| [the 55357 thing is played while "se de un remed"5|-7-7--5----------------| is singed]6|----------5-5-3-5-7----|
1|-----------------------|2|-----------------------|3|-----------------------|4|-9-7-5-----------------|5|-9-7-5-----------------|6|-7-5-3-----------------|
que un moro me dio
1|-----------------------|2|-9---------------------|3|-9-9--7----------------| 4|-7-9--7----------------| 5|-7-7--5----------------|6|-----------5-5-3-5-7---|
te quita el tedio y aveces tambien el dolor
1|-----------------------|2|-----------------------|3|----------------9-9----|4|-9-9-9-9-9-9-9--9-9----|5|-7-7-7-7-7-7-7--7-7----| 6|-7-7-7-7-7-7-7---------|
CHORUS: CORO: INTRO SCALE IS PLAYED SE TOCA LA ESCALA DE INTRO ok, va guay! tomalo es medicina natural ok, va guay! contra el mal humor, balsamo del fierabras Verse 2/ VERSO 2 [SAME CHORDS AS VERSE 1] [MISMOS ACORDES Q EL VERSO 1] La noche de los tiempos se pierde a su creacion lo da la tierra lo sacia la lluvia y lo seca el sol en el lejano oriente es tradicion y aqui los necios lo llaman corrupcion [SOLO] THE SONG IS PLAYED LIKE THIS ORDEN DE LA ROLA: Intro verso 1 CORO VERSO 2 SOLO CORO Bueno ahi la tienen, disfrutenla Ok, there u go! enjoy :) Any comments, sugestion or threats email me at: interpol_0102@hotmail.com comentarios, sugerencias o mentadas de madre a: interpol_0102@hotmail.com
Tap to rate this tab
 
# A B C D E F G H I J K L M N O P Q R S T U V W X Y Z