Mago De Oz - Al-mejandria tab

Tab. By: Rene Mendez (The Chapin Wizard)

INTRO
X4 (junto con el violín)

---------------|---------------|---------------|--12----12-12--|--12----12-12--|--10----10-10--|
VIOLIN 1 (intro)X4-------------13h15p13-12-13-----|----------15----------------15--|-------14-----------------------|-12-15--------------------------|--------------------------------|--------------------------------|
-------------13h15p13-12-----|----------15-------------15--|-------14--------------------|-12-15-----------------------|-----------------------------|-----------------------------|
VIOLIN 2 (0:15)X2-----------------------------------------|-------------------13-13h15p13-12-13-----|-------------14-14-------------------14--|-7xxxx----14-----------------------------|-7xxxx-----------------------------------|-5xxxx-----------------------------------|
-----------------------------|----------13-13h15p13-12-----|----14-14----------------14--|-14--------------------------|-----------------------------|-----------------------------|
GUITARRA (0:22)---------------------------------------------------|---------------------------------------------------|---------------------------------------------------|---------------------------------------------------|------------------12-10-----------------------12~--|-10xxxxx-10-12-13-------13-12-10xxxx-10-12-13------|
---------------------------------------------|---------------------------------------------|---------------------------------------------|---------------------------------------------|------------------12-10-----------------12~--|-10xxxxx-10-12-13-------13-12-10xxxx-13------|
VERSO 1 (solo bajo) Bienvenido a este viaje acomódate en el sillón te enseñaré el paraíso perdido sin salir de tu habitación.
------------------------------------------------|---------------13-------------------------------|-14-12--14-12-----14-12--14-12-----------14-12--|--------------------------------12-13-14--------|------------------------------------------------|------------------------------------------------|Hace mucho tiempo yaque la Biblia habló de élpero nunca explicócomo encontrarlo ni quién lo conquistó
CORO 1(na na na na....)X2-----------------------|-----------------------|-7xxx-----------5------|-7xxx-7xxx-5xxx-5-7-7--|-5xxx-7xxx-5xxx-3-7-7--|------5xxx-3xxx---5-5--|
---------------------|---------------------|-7xxx-----------5-7--|-7xxx-1xxx-7xxx-5-7--|-5xxx-1xxx-7xxx-3-5--|------3xxx-5xxx------|
*parte de violin 1 (0:58)X2----------------|----------------|----------------|----------------|----------------|-10xxxxxx-10s0--|
VERSO 2 (igual al 1) Entre dos cordilleras de piernas de mujer al Norte hay dos volcanes donde duerme Lucifer Al Este y al Oeste las caderas de Babel y al Sur, amigo mío un consejo: siempre estés CORO 2 (igual al 1)
*parte de violin 1 (1:37)X2----------------|----------------|----------------|----------------|----------------|-10xxxxxx-10s0--|
VERSO 3 (igual al 1 y 2) Más abajo del ombligo te abrirán las puertas de par en par has llegado al paraíso perdido donde habitan la serpiente y Adán Yo te ofrezco a ti este reino sólo has de tomar una precaución primero, practicar a diario, segundo, tirar bien de riñón. CORO 3 (igual al 1 y 2, pero luego dice:) Haz turismo en Al-mejandría con la portera, o en la vicaría haz turismo en Al-mejandría con la portera, o en la vicaría.
GUITARRA (2:33)---------------------------------------------------|---------------------------------------------------|---------------------------------------------------|---------------------------------------------------|------------------12-10-----------------------12~--|-10xxxxx-10-12-13-------13-12-10xxxx-10-12-13------|
---------------------------------------------|---------------------------------------------|---------------------------------------------|---------------------------------------------|------------------12-10-----------------12~--|-10xxxxx-10-12-13-------13-12-10xxxx-13------|
PARTE ESPECIAL (2:41)repetidamente------------------------|------------------------|------------------------|-------7xx-7xx-7xx-7-8--|-------7xx-7xx-7xx-7-8--|-0s5~--5xx-5xx-5xx-5-6--|
VIOLIN 3 (2:52) X2
-----------------18-17-13--12h13p12--|-------------------------------------|-14-15-14-12-14----------------------|-------------------------------------|-------------------------------------|-------------------------------------|
-----------------18-17-13-12--|------------------------------|-14-15-14-12-14---------------|------------------------------|------------------------------|------------------------------|
VIOLIN 4 (3:02) X2
------------------------------12-13-15-13-12--|-------14--------14-15-14-15------------------|-14-15----15-14-------------------------------|----------------------------------------------|----------------------------------------------|----------------------------------------------|
----------------------------------------|-------14--------14-15-14---------------|-14-15----15-14-----------15-14---------|--------------------------------15-14~--|----------------------------------------|----------------------------------------|
*solo de guitarra y violin
Tap to rate this tab
 
# A B C D E F G H I J K L M N O P Q R S T U V W X Y Z