Mago De Oz - El Pacto tab

mago de oz
el pacto

Intro bajo

----------------------------------|----------------------------------|----------------------------------|-----5-------5-------5-------5----|---5---5---5---5---5---5---5---5--|-3-------3-------3-------3--------|
----------------------------------|----------------------------------|-----3-------3-------3-------3----|---3---3---3---3---3---3---3---3--|-1-------1-------1-------1--------|----------------------------------|
----------------------------------|----------------------------------|----------------------------------|-----3-------3-------3-------3----|---3---3---3---3---3---3---3---3--|-1-------1-------1-------1--------|
----------------------------------|----------------------------------|----------------------------------|-----5-------5-------5-------5----|---5---5---5---5---5---5---5---5--|-3-------3-------3-------3--------|
guitara (0:12)
------------3-----|--------3-----3---|------3---3-------|---5--------------|------------------|-3----------------|
------------3-----|--------3-----3---|------3---3-------|---5--------------|------------------|-3----------------|
-----------1------|-------3-----3----|-----3---3--------|---3--------------|-1----------------|------------------|
-------------------|-------1-----------|-----2---2---------|---3---------3-----|-------------------|-1---------1---3---|
violin 1 (0:24) X3
----------------------------------|-------10-11-10-------10----------|-12-12----------12-10----12-------|-----------------------------12---|----------------------------------|----------------------------------|
--------------------------|----10-11-10-------10-----|-12----------12-10----12--|--------------------------|--------------------------|--------------------------|
-------10----10-11-10--------|-11-13----13----------13-11--|-----------------------------|-----------------------------|-----------------------------|-----------------------------|
---------------------------------|-11--11-11-10----------10--------|---------------10-10-------12----|---------------------10----------|---------------------------------|---------------------------------|
violin 2 (1:04) X2
------------------------------------------------|--------10-11-10-11-13-11-10----10--------------|-12-12------------------------12----12-10-------|-------------------------------------------12---|------------------------------------------------|------------------------------------------------|
------------------10~---|--------10-11-13--------|-12-12------------------|------------------------|------------------------|------------------------|
--------------10----10-11-10-----------------------|-13-11-11-13----13-----------13-11-13-11-10--------|----------------------------------------------12---|---------------------------------------------------|---------------------------------------------------|---------------------------------------------------|
----------------10-12~--|-------10-11-13---------|-10-12------------------|------------------------|------------------------|------------------------|
acompañamiento del violin 2 X2
------------------------------------------------------|------------------------------------------------------|---------------------------------------2-3-5----------|---------------------------3xx-3xx-3xx-0-1-3----------|-5xx-5xx-5xx-3-5xx-5xx-5xx-1xx-1xx-1xx-------3~~------|-3xx-3xx-3xx-1-3xx-3xx-3xx----------------------------|
VERSO 1 X3
------------------------------------------------|------------------------------------------------|--------------2-3xx-3xx-3xx-3xx-3xx-3xx-3-3-----|--55-55-55--5-2-3xx-3xx-3xx-3xx-3xx-3xx-3-3-3---|--55-55-55--5-0-1xx-1xx-1xx-1xx-1xx-1xx-1-1-3---|--33-33-33--3-------------------------------1---|
toda la devocion que puedas soportar de un solo ser servicial toda la dimension de su escas libertad pude tenerla en mis manos bien me hizo ver que la realidad se puede transformar quise tener ms y ms violin 2 (X1) VERSO 2 (igual al verso 1 pero X2) en mi transformacion todo deje atras familia, amigos, hogar me adentre en un mundo cruel donde crei hallar mi piedra filosofal CORO 1
---------------------------------------------------------------------|---------------------------------------------------------------------|-3--3-------------------------3--3-------------------------88-1010---|-3----3----3--3------5--5-----3----3----3--3------5xxxxxx--88-1010---|-1------1--3----3----5----5---1------1--3----3----5xxxxxx--66--8-8---|-----------1------1--3------3-----------1------1--3xxxxxx------------|se que tu te lo imaginarasme rompe el corazny mi alma en poder de otro dios est!!!!
*parte del violin 2 (X2) riff especial (2:50)
---------------------------------------------|---------------------------------------------|---------------------------------------------|--5-5-3-3--5-5-3-3--5-5-3-3------------------|--5-5-3-3--5-5-3-3--5-5-3-3---------1-3-1~---|--3-3-1-1--3-3-1-1--3-3-1-1--3-1-3-----------|
-------------------------------------------|-------------------------------------------|-----------------------------3--5----------|--5-5-3-3--5-5-3-3--5-5-3-3--3--5----------|--5-5-3-3--5-5-3-3--5-5-3-3--1--3----------|--3-3-1-1--3-3-1-1--3-3-1-1----------------|
solo de guitarra 1 (2:59)
esta va 8 veces-------------------------------------------- |-8-8-10-10-11-11-13-13-11-11-10-10-8-8-6-6-- |-------------------------------------------- |-------------------------------------------- |-------------------------------------------- |-------------------------------------------- |
las ultimas 4 van junto con esto-6-6-8-8-10-10-11-11-10-10-8-8-6-6-5-5------|--------------------------------------------|--------------------------------------------|--------------------------------------------|--------------------------------------------|--------------------------------------------|
(3:16) luego entra esto X2
-----------------------------|----8-----8-10-11-10-8----8--|-10---10---------------10----|-----------------------------|-----------------------------|-----------------------------|
-10-8-------------------|------11-10-8----8------|--------------10---7----|------------------------|------------------------|------------------------|
-----------------8~----------------|------------8-10---11-10-11-10-----|-7-7-10-10-------------------------|-----------------------------------|-----------------------------------|-----------------------------------|
solo de guitarra rapido (3:33) acompañamiento del solo X4
------------------------------------------|------------------------------------------|--------3xxxx----------5xx--5-3-2---------|-5xxxx--3xxxx--3xxxx--5xx--5-3-2-3-5------|-5xxxx--1xxxx--3xxxx--3xx--3-1-0-3-5------|-3xxxx---------1xxxx-------------1-3------|
(4:07) aqui la guitarra hace el primer riff del violin (con el acompañamiento del verso) X4 VERSO 3 (igual a los anteriores) X2 y consegui llegar frente al guardian de luz no quiso dejarme entrar condenado a deambular por la inmensa oscuridad solo no podre escapar CORO 2 (igual al 1) *parte del violin 2 X3 FINAL (5:41)
--------|--------|--------|--5--5--|--5--5--|--3--3--|
Ya kauros aka dejandoles una papita de parte de papa math.radamanthys@gmail.com AGRADEER CUESTA NADA...
Tap to rate this tab
 
# A B C D E F G H I J K L M N O P Q R S T U V W X Y Z