Mando Diao - Sheepdog tab

Sheepdog/Mando diao


intro:

|--------------------------------------||--------------------------------------||--------------------------------------||----9-9-7-9-7-------------------------||--------------9-8-7-7-5-7-5---5-------||----------------------------7---------|
6x Bm I aim at the first one who'll dare to stand still D Oh Lord you're tension is making me ill Em You've got no friends in your home you'll got no family stone F#m F# You can't go: Yeah Yeah Yeah, Yeah Yeah Yeah Bm Everyone, in every town, on every boat, on every trip, the multi-talanted strip, D Will gather 'round you with coke and pain Em Oh the trees ain't no doubt about The seeds I had no thought about F#m No, Yeah Yeah Yeah F# G A D C# Bm Don't know why I can't locate this feeling that I would rather be with you G A It makes no sense your crying out loud that I may love you
|-----------------------------------------||-----------------------------------------||-----------------------------------------||----9-9-7-9-7----------------------------||--------------9-7------------------------||------------------7-7-5-7-5-2-1----------|
G A D C# Bm This stress is wasting my emotions that I would rather be with you G A Don't let them closer to this secret...[pause] that I may love you 2x Intro Bm Take 'em outa west, take 'em outa height, take 'em on a sweet ride D Those little angels are numbered nine Em The colored TV once shined on desolation 15 F#m F# They've got it! Yeah Yeah Yeah, Yeah Yeah Yeah Bm Bust 'em in the light, bust 'em in the light, BUST 'EM IN THE DAYLIGHT D They ain't worthy being named as thieves E One of those shorties said hi up to the abbot who died F#m The rebound, Yeah Yeah Yeah F# G A D C# Bm Don't know why I can't locate this feeling, that I would rather be with you G A It makes no sense, your crying out loud, that I may love you
|-----------------------------------------||-----------------------------------------||-----------------------------------------||----9-9-7-9-7----------------------------||--------------9-7------------------------||------------------7-7-5-7-5-2-1----------|
G A D C# Bm This stress is wasting my emotions that I would rather be with you G A Don't let them closer to this secret...[pause] that I may love you 2x Intro 4x Intro and the solo at the same time.
solo:|----------------------------------------------------------------||----------------------------------------------------------------||------------------------------99999999-1010101010101010---------||----99999999-1212121212121212-----------------------------------||----------------------------------------------------------------||----------------------------------------------------------------|
|----------------------------------------------------------------||---------------------1010101010101010-1212121212121212----------||----1111111111111111--------------------------------------------||----------------------------------------------------------------||----------------------------------------------------------------||----------------------------------------------------------------|
|-------------------------------1010-99--------------------------||----1010101010101010--12121212---------12121212-10101010--------||----------------------------------------------------------------||----------------------------------------------------------------||----------------------------------------------------------------||----------------------------------------------------------------|
|-------------1010-99--------------------------------------------||----12121212---------12121212-10101010-12121212 10101010--------||----------------------------------------------------------------||----------------------------------------------------------------||----------------------------------------------------------------||----------------------------------------------------------------|
|----------------------------------------------------------------||----------------------------------------------------------------||----11111111-10101010-9999--------------------------------------||---------------------------12121212-9999------------------------||-----------------------------------------12121212---------------||----------------------------------------------------------------|
|----------------------------------------------------------------||----------------------------------------------------------------||----11-11-9-11-9------------------------------------------------||-----------------11-10------------------------------------------||-----------------------9-9-7-9-7---7---9-9-7-9-7----------------||---------------------------------9---------------9-8------------|
|----------------------------------------------------------------||----------------------------------------------------------------||----------------------------------------------------------------||----------------------------------------------------------------||----------------------------------------------------------------||----3-3-3-5-5-5-------------------------------------------------|
G A D C# Bm Now hear the bluebird whistle hymns like "I would rather heal your wounds" G A now hear the dark gun punching out loud, ( pause ) ... that I may love you
|-----------------------------------------||-----------------------------------------||-----------------------------------------||----9-9-7-9-7----------------------------||--------------9-8-7-7-5-7-5---5----------||----------------------------7------------|
( keep playing the intro for a while and the fade out ) By staved.
Tap to rate this tab
 
# A B C D E F G H I J K L M N O P Q R S T U V W X Y Z