Repeat tab with lyrics by Manic Street Preachers - Easy chords and tabs for guitar

Manic Street Preachers – Repeat tab

          Band:Manic Street Preachers
          Song:Repeat (UK)
          Tabbed by:SLAUGHTER!!!!!!!!!! (s_laughter_uk@yahoo.co.uk)
          
          Tuning:EADGBE
          
          
          "London, England, consider yourselves, warned!"
          
          
Repeat after me fuck queen and country, -------------------------------------------------------- -------------------------------------------------------- -------------------------------------------------------- ------------------------------------------7------4------ ------------------------------------------7------4------ --------------------------------0-5-0-0-0-5--0-0-2--0-0- PM... ... ...
---------------------------------------- ---------------------------------------- -------7-------------------------------- -2-----7-7---------------------------7\- -2-----5-7---------------------------7\- -0-0-0---5---------------------------5\-
| ... ------------------------------------------------------ -5----7------8-----10-----12-----14-----15-----14----- -7(9)-9(11)-10(12)-12(14)-14(16)-16(18)-17(19)-16(18)- ------------------------------------------------------ ------------------------------------------------------ ------------------------------------------------------
w/wah-slowly pushing pedal forward --------------------------------------------5------5- -7^8^7^5^7^5---5----------------------------5------5- -------------7---7-6-7-6-4-6-4---------7(9)---7(9)--- -------------------------------7-4-x-4--------------- ----------------------------------------------------- -----------------------------------------------------
------5-5---- ------5-5---- -7(9)---7(9)- ------------- ------------- -------------
Repeat after me death sentence heritage.... -------------------------------------------------------- -------------------------------------------------------- --------------------------7---------------------------7- -----7------4------2------7------7------4------2------7- -----7------4------2------5------7------4------2------5- -0-0-5--0-0-2--0-0-0--0-0----0-0-5--0-0-2--0-0-0--0-0--- ... ... ... ... ... ... ... ...
-------------------------- -------------------------- --------------------------other guitar palm mutes A5 -7------------------------here.... -7------------------------ -5------------------------
Repeat after me death camp palace....
---------------------------------------------------------- ---------------------------------------------------------- --------------------------7-----------------------------7- -----7------4------2------7------7------4------2------7-7- -----7------4------2------5------7------4------2------7-5- -0-0-5--0-0-2--0-0-0--0-0----0-0-5--0-0-2--0-0-0--0-0-5--- ... ... ... ... ... ... ... ...
A5 D5 -5-x-5-x-5-5-x-5------5-5- Slight variation on repeat. -5-x-5-x-5-5-x-5-5----5-5- There is also another guitar -x-x-x-x-x-x-x-x-7(9)---7- in the background just -7-x-7-x-7-7-x-7---------- messing around. -------------------------- -------------------------- x4 Useless generation, Dumb flag scum, Useless generation, Dumb flag scum.
A5 D5 A5 D5 A5 D5 A5 -5----5-5----5-5----5-5----5-5---5-5----5-5---\- -5----5-5----5-5----5-5----5-5---5-5----5-5---\- -7(9)---7(9)---7(9)---7(9)---7(9)--7(9)---7(9)\- ------------------------------------------------ ------------------------------------------------ ------------------------------------------------
(This verse has same chords as first verse) Repeat after me fuck queen and country.... ----------------------------------------------------------- -5----3----2----0------------------------------------------ -7(9)-5(7)-4(6)-2(4)-2^4^2^4^2^4^2^4^2^4^2^4^2^4^2^4-4-(6)- ----------------------------------------------------------- ----------------------------------------------------------- -----------------------------------------------------------
Repeat after me Royal Khymer Rouge, Repeat after me imitation demi-gods. Useless generation, Dumb flag scum, Useless generation, Dumb flag scum. SOLO
Other guitar plays chorus riff -------------------------------------------------------- ------------------------------------------------5-7-5-7- -----------------2---2-(3)-(2)~~2~~-------------5-7-5-7- -------------2-5---5----------------------5-5-7--------- -------3-3-5------------------------5-6-7--------------- -3-4-5--------------------------------------------------
-------------- -(8)-(7)-5~~~- -(8)-(7)-5~~~- Other guitar plays -------------- chorus riff twice more. -------------- --------------
-------5-5- -7-8-7^8^7-----------------------------5- -------5--- -----------8^7-5------------------------- -7-(9)----- -----------------5^4---5^4---5-7-7-(9)--- ----------- --------------------^7----^7------------- ----------- ----------------------------------------- ----------- x2 -----------------------------------------
w/wah -----9---9---9-(10)-(9)--7--------- ---------------------------10~~~~\- -7/9---9---9----------------------- ----------------------------------- ----------------------------------- -----------------------------------
w/wah ------------------ ----------------------------- -8^10^8^7-7---7^8- ----------------0----------0- ------------9----- -7---7-9-9-(11)---9-9-(11)--- ------------------ ---9------------------------- ------------------ ----------------------------- ------------------ x4 -----------------------------
------------------------------------------------- -10-10-(11)~~~~\-5-----3------------------------- -----------------7-(9)-5-(7)-4-(6)-(4)-2---2----- -----------------------------------------4---4-2- ------------------------------------------------- -------------------------------------------------
A-4-4^0-0-------0------------- PAUSE E---------3-(4)---3----(5)----
Other guitar plays end of verse riff ------------------------------------------------------ -5----7------8-----10-----12-----14-----15-----14----- -7(9)-9(11)-10(12)-12(14)-14(16)-16(18)-17(19)-16(18)- ------------------------------------------------------ ------------------------------------------------------ ------------------------------------------------------
B-14^17^14- x6 -17-(20)-\- REPEAT CHORUS LAST SOLO
A5 ---------------------------------------15----------- ------------------------12^13-15-15(17)--15(17)(15)- ----------------11^12^14---------------------------- -----------12^14------------------------------------ ------12^14----------------------------------------- -12^15----------------------------------------------
B-13~~\- x3
Other guitar plays A5 D5 A5 D5 riff -------5-------5-------5-----5-----5-----5- -------5-------5-------5-----5-----5-----5- -7-(9)---7-(9)---7-7(9)--7(9)--7(9)--7(9)-- ------------------------------------------- ------------------------------------------- -------------------------------------------
-8-8^7^5---5------------------------------------------ ---------8---8-8^6-5---------------------------------- ---------------------7-5---5-------------------------- -------------------------7---7-5---5------------------ ---------------------------------7---7-5^3^5^3^5^3---- ---------------------------------------------------5\- (echo)
I'm not sure about the end solo, it's almost impossible. Anyway, any emails are welcome.... s_laughter_uk@yahoo.co.uk Please visit my website:www.homestead.com/slaughtertabs
Please rate this tab:
x1.0