Manic Street Preachers – The Future Has Been Here 4 Ever tab

Manic Street Preachers
The Future Has Been Here 4 Ever

Tabbed by Dan Thomas
http://www.DanThomasMusic.com

D Bm F#m A x 2

D          Bm     F#m
Wipe those tears away
     A               D
Keep as still as you can
          Bm             F#m
Hold your breath and dig deep
    A
And stop those trembling hands


D        Bm      F#m
Make yourself pretty
A                 D
Just for one last time
            Bm   F#m
No one will ever know
    A              D
You ever left your prime
Bm    F#m


----------------------------------------------------|----------------------------------------------------|----------------------------------------------------|--------0-----0h2-----------------------------------|----0h2---0h2---------------------------------------|--3-------------------------------------------------|
CHORUS A Asus4 A G Bm F# G The future has been here fore....ver
----------------------------------------------------|----------------------------------------------------|----------------------------------------------------|--------0-----0h2-----------------------------------|----0h2---0h2---------------------------------------|--3-------------------------------------------------|
A Asus4 A G Bm F# G The future's still unclear whate....ver
----------------------------------------------------|----------------------------------------------------|----------------------------------------------------|--------0-----0h2-----------------------------------|----0h2---0h2---------------------------------------|--3-------------------------------------------------|
Solo (verse chords)
----------------------------------------------------|--------------------------14----14------------------|-----------------7--------16b18-16-16-14-16---------|---------------7---9-7----------------------16------|---------7-7h9--------------------------------------|-19s0-----------------------------------------------|
D Bm Fm This place it left me A D A long, long time ago Bm F#m But it still keeps me here A D It still keeps me close Bm F#m When I start to break free A D It calls me back again Bm F#m Like the Godfather 3 A D I never can escape Bm F#m
----------------------------------------------------|----------------------------------------------------|----------------------------------------------------|--------0-----0h2-----------------------------------|----0h2---0h2---------------------------------------|--3-------------------------------------------------|
CHORUS A Asus4 A G Bm F# G My future has been here fore....ver
----------------------------------------------------|----------------------------------------------------|----------------------------------------------------|--------0-----0h2-----------------------------------|----0h2---0h2---------------------------------------|--3-------------------------------------------------|
A Asus4 A G Bm F# G The future's still unclear whate....ver
----------------------------------------------------|----------------------------------------------------|----------------------------------------------------|--------0-----0h2-----------------------------------|----0h2---0h2---------------------------------------|--3-------------------------------------------------|
BREAK Em Bm G Em When you can't shake off your yesterdays Bm G Em When you can't rewrite your histories Bm G Em When you let some love break through the light Bm G When you let someone come into your life D To your life A To your life G To your life D To your life A To your life
----------------------------------------------------|----------------------------------------------------|----------------------------------------------------|--------0-----0h2-----------------------------------|----0h2---0h2---------------------------------------|--3-------------------------------------------------|
-----------------------------10---------------------|-------------------------10b12b10-8-----------------|----------7-9-9b11-6~----------------11-11b12b11~~--|--------7-------------------------------------------|--7-7h9---------------------------------------------|----------------------------------------------------|
-----10---------------------------------------------|----------------------------------------------------|--9b11b9-6b7b6b7b6----------------------------------|----------------------------------------------------|----------------------------------------------------|----------------------------------------------------|
--------------------2-------------------------------|--------------------3-------------------------------|--------------------2-------------------------------|--------0-----0h2---0-------------------------------|----0h2---0h2---------------------------------------|--3-------------------------------------------------|
D
Please rate this tab:
x1.0