Manic Street Preachers - Slash N Burn tab version 2

I've seen many tabs for this song and most of them are wrong. What people don't realize, is
that the song is
tuned down to E# (Half step down from Standard) so most tabs are transcribed a fret 
above from what James Dean
Bradfield plays. The solo is also included but it may have one or two notes missing. Enjoy!



h = Hammer on
P = Pull off
/ = Slide
PM = Palm mute
b = Bend note

INTRO/RIFF AFTER 2ND CHORUS:

-----------------------------------------3-----------|----------------------7-7-8-7------------3-3-3-3-3-3-|----------------14-12-7-7-7-7--------------5-4-4-5-4-|-------10h12/14-12-12-7-7-9-7---2p0--------5-5-5-5-5-|-10h12------------------------------2p0--------------|----------------------------------------3------------|
--------------------|-11-10---9--8---8-7-|-10-10---8--8---7-7-|-12-10---10-8---9-7-|--------------------|--------------------|
VERSE:
-----------------------------------------------------------|-----------------------------------------------------------|-5/7-7-7-7-7-7-7-5/7-7-7-7-7-7-5/7-7-7-7-7-7-7-----5--5-5--|-5/7-7-7-7-7-7-7-5/7-7-7-7-7-7-5/7-7-7-7-7-7-7--5--5--5-5--|-3/5-5-5-5-5-5-5-3/5-5-5-5-5-5-3/5-5-5-5-5-5-5--5--3--3-3--|------------------------------------------------3----------| PM|---------| PM|-------| PM|----------------------|
CHORUS:
-----------------------------------------------|-----------------------------------------------|------5---5---5/7-7-7-7-7-7-7-5/7-7-7-7-7-7-7--|-3----5---5---5/7-7-7-7-7-7-7-5/7-7-7-7-7-7-7--|-3----3---3---3/5-5-5-5-5-5-5-3/5-5-5-5-5-5-5--|-1---------------------------------------------| PM|---------| PM|-----------|
----------------------------------|----------------------------------|------5---5---5/7-7-7-7-7-7-7-10--|-3----5---5---5/7-7-7-7-7-7-7-10--|-3----3---3---3/5-5-5-5-5-5-5-8---|-1--------------------------------| PM|--------------|
BRIDGE: LEAD
-8--------------------|---8------------------|-----8--------------8-|-------10-8----8-10---|------------10--------|----------------------|
RHYTHM
------------------|------------------|-5----8----3------|-5----8----3----3-|-3----6----1----3-|----------------1-|
LEAD -15-----|
-18b20*-|--------|--------|--------|--------|* = Gradually descend note when strumming.
RHYTHM
--------------------------------|--------------------------------|--------------------------------|-3-5------5-5------3-5------3-5-|-3-5------5-5------3-5------3-5-|-1-3------1-3------1-3------1-3-|
MIDDLE/SOLO:
-------------------------------------|-----3-----5-----7-------10----10-12-|-----3-----5-----7-------10----10-12-|-----3-----5-----7-------10----10-12-|-3-5---5-7---7-9---10-12----12-------|-------------------------------------|
-----|-----|-9---|-9---|-7---|-----|
---------------------------------------------12-14-15b17~~(15)-|------------------------------------12-14-15-------------------|------------------------12h14-14h16----------------------------|-------------------12h14---------------------------------------|--------------12h14--------------------------------------------|-12---12-12h15-------------------------------------------------|
OUTRO
-------------------------------------|-11-10---9--8---8-7---6-5---4-3------|-10-10---8--8---7-7---5-5---3-3----3-|-12-10---10-8---9-7---7-5---5-3----3-|-----------------------------------1-|-------------------------------------|
Tap to rate this tab
 
# A B C D E F G H I J K L M N O P Q R S T U V W X Y Z