Manic Street Preachers - La Tristesse Durera tab

          Song:La Tristesse Durera 
          Band:Manic Street Preachers
          Tabbed by:SLAUGHTER!!!!!!!!!!!!! (s_laughter_uk@yahoo.co.uk)
          
          Tuning:EADGBE
          
          
          Chords:
          Em:x7998x
          G:x, x, 12, 12, 12, x.
          D:xx777x
          C:xx555x
          
          
          BPM:102
          
          
          INTRO
          
          
          Bass
          ------------------------
          ------------------------
          ------------------------
          -3-3-3--0-3-3--0-3--0--- x2
          
          
          then,
          
          
          Main riff
          
          
Gtr.1 w/heavy P.M. ------------------------- ------------------------- ------------------------- --------4---2-------2---- ----------5----3--3----3- -3--3-3------------------ x2
VERSE w/main riff x8 BRIDGE
------------------------------------------------- ------------------------------------------------- -(5)xx(5)x(5)x(5)x(5)(7)(8)xx(8)x(8)x(8)x(8)(10)- ( ) --5-xx-5-x-5-x-5-x-5--7--8-xx-8-x-8-x-8-x-8--10-- notes --3-xx-3-x-3-x-3-x-3--5--6-xx-6-x-6-x-6-x-6---8-- happen ------------------------------------------------- rarely
Main riff x2
------------------------------------------------- ------------------------------------------------- -(5)xx(5)x(5)x(5)x(5)(7)(8)xx(8)x(8)x(8)x(8)(10)- ( ) --5-xx-5-x-5-x-5-x-5--7--8-xx-8-x-8-x-8-x-8--10-- notes --3-xx-3-x-3-x-3-x-3--5--6-xx-6-x-6-x-6-x-6---8-- happen ------------------------------------------------- rarely
CHORUS Gtr.1 main riff x8
Gtr.2 ------------------------- --------7---5-------5---- ----------7----5--5----5- -5--5-5------------------ ------------------------- ------------------------- x8
Gtr.3 plays G5 once, ring out for 4 bars, repeat then,
Gtr.1 w/distortion -2------------------------ -3------------------------ -2------------------------ -0------------------------ -------------------------- --------------------------
|
|Gtr.2 w/distortion -------------------------- -------------------------- -7------------------------ -7---------------------7\- -5---------------------5\- --------------------------
INTERLUDE
Gtr.1 w/lighter P.M. ------------------------- ------------------------- ------------------------- --------4---2-------2---- ----------5----3--3----3- -3--3-3------------------ x2
|
|Gtr.2 w/ligher P.M. ------------------------- --------7---5-------5---- ----------7----5--5----5- -5--5-5------------------ ------------------------- ------------------------- x2
REPEAT VERSE w/gtr.1 + 2 parts BRIDGE 2
Gtr.1 ------------------------------------------------- ------------------------------------------------- -(5)xx(5)x(5)x(5)x(5)(7)(8)xx(8)x(8)x(8)x(8)(10)- ( ) --5-xx-5-x-5-x-5-x-5--7--8-xx-8-x-8-x-8-x-8--10-- notes --3-xx-3-x-3-x-3-x-3--5--6-xx-6-x-6-x-6-x-6---8-- happen ------------------------------------------------- rarely
|
|Gtr.2 w/neck pickup --------------------------------------------------- --------------------------------------------------- -9-xx-9-x-9-x-9-x-9-11-12-xx-12-x-12-x-12-x-12--14- --------------------------------------------------- --------------------------------------------------- ---------------------------------------------------
Gtr.1 ------------------------- ------------------------- ------------------------- --------4---2-------2---- ----------5----3--3----3- -3--3-3------------------ x2
| |Gtr.2 ---------------------------- ---------------------------- -14--(16)-----(14)-12~~~~~\- cancel ---------------------------- neck pickup ---------------------------- ----------------------------
Gtr.1 ------------------------------------------------- ------------------------------------------------- -(5)xx(5)x(5)x(5)x(5)(7)(8)xx(8)x(8)x(8)x(8)(10)- ( ) --5-xx-5-x-5-x-5-x-5--7--8-xx-8-x-8-x-8-x-8--10-- notes --3-xx-3-x-3-x-3-x-3--5--6-xx-6-x-6-x-6-x-6---8-- happen ------------------------------------------------- rarely
REPEAT CHORUS w/lighter P.M.
Gtr.1 -------------------- -------------------- -------------------- ----------------4-/- -3-(5)------(3)----- --------------------
|
|Gtr.2 -------------------- -------------------- -7------------------ reduce gtr. volume -7------------------ to 5 (approx.) -5------------------ --------------------
SOLO Gtr.2 Em G D C x2 (w/slight variation on repeat)
Gtr.1 ------------------------------------------------------------------------------------------------------ ------------------------------------------------------------------------------------------------------ ----------------------12\11----11-12~~~~12~~~~12-12(14)(12)-12-(14)(12)-11/12-12(14)-12(14)-12(14)~~\- -14~~~~14~~~~14~~14~~-------14------------------------------------------------------------------------ ------------------------------------------------------------------------------------------------------ ------------------------------------------------------------------------------------------------------
-----14-12----12--------------------------------------------------------------------------------------- -----------15----15-12----12--------------------------------------------------------------------------- -----------------------14----14-12----12--14(16)(14)-12---------------------12\11----11-12~~~~12~~~~12- -/14-------------------------------14-------------------14~~~~14~~~~14~~14~~------14------------------- ------------------------------------------------------------------------------------------------------- -------------------------------------------------------------------------------------------------------
--------------------------------------------------------------------------------------------------- --------------------------------------------------------------------------------------------------- -12(14)(12)-12-(14)(12)-11/12-12(14)-12(14)-12(14)~~\-----------9-7---------------9-7-------------- ------------------------------------------------------/7-7-7(9)-----9-7----7-7(9)-----9-7---------- ------------------------------------------------------------------------10----------------10-10-10- ---------------------------------------------------------------------------------------------------
----------------------------------------------------------- ----------------------------------------------------------- ----------------21-19--------------------21-19------------- -/19-19-19(21)-------21-19----19-19(21)-------21-19-------- ---------------------------22-----------------------22-22\- -----------------------------------------------------------
Gtr.2 out
Gtr.1 ----------------------------- ----------------------------- ----------------------------- --------5^4^2-4--2-0---0-2^4- -0--0-0--------------2------- ----------------------------- x3
---------------------------- ---------------------------- ---------------------------- -------5^4---------5^4------ -3-3-3-----5-3-3-3-----5-3/- ----------------------------
------------------------------------- ------------------------------------- ------------------------------------- ---------17^16-------------17^16----- 15-15-15-------17-15-15-15-------15\- -------------------------------------
REPEAT CHORUS OUTRO CHORUS w/main riff x12 OUTRO w/main riff x11 Finish on G5 You can email me at s_laughter_uk@yahoo.co.uk Please visit my website:www.homestead.com/slaughtertabs
Tap to rate this tab
 
# A B C D E F G H I J K L M N O P Q R S T U V W X Y Z