Marc Ribot – Postcard From Ny tab

Marc Ribot - Postcard from Ny

E||---------|------------------------|----2------------------------|B||---0h5-5-|------------------------|------5p3p0h3----------------|G||---------|--------2---------------|--2--------------------------|D||---------|------------------------|-------------------4---------|A||---------|-----4---------4-----4--|----------------2---------2--|E||---------|--2---------------2-----|------------0----------------|
-------------------------|---------------2--------------|----------0h3-3----------|-----------------5p3p0-5------|--------------------2----|-------------2----------------|-------------------------|------------------------------|-------2---------4-------|----4-----4----------------2--|--0-----------2----------|-------2---------------0------|
--------------------------|------------------------|--------------------0-----|--3---------------------|--0-----------------------|----------2-------------|--4----4--2------4--------|-------4----------4-----|-------------5------------|----2----------------2--|--------------------------|------------------------|
-------2----------------------------|----------------------------|---------5p3p0-5--------------------|-----3----2-----------------|-----2------------------------------|------------------2---------|--4------------------5-----4--5-----|--4-------------------------|------------------2--------------5--|---------------4-------4----|------------------------------------|------------2-------------2-|
------------------------|----------------------|---------|------0--------------0--|---------------0------|---0h5-5-|------2--------------2--|---------------2------|---------|------------------------|----------------------|---------|---4--------4-----4-----|------4-----4---------|---------|---------------2--------|---------2------------|---------|
------------------------|----2------------------------|------------------------|------5p3p0h3----------------|--------2---------------|--2----------------0---------|------------------------|-------------------4---------|-----4---------4-----4--|----------------2---------2--|--2---------------2-----|------------0----------------|
-------------------------|---------------2--------------|----------0h3-3----------|-----------------5p3p0-5------|--------------------2----|-------------2----------------|-----------------4-------|----4-----4-------------------|-------2------2----------|-------2-------------------2--|--0----------------------|-----------------------0------|
--------------------8p-7--7-|-----5-----------------|--7--5-----3-----------|-----------------0----------|-----------5-----------|--5-----5--------3-----|--0-----------------------5-|--------5--------------|--5--------------4-----|-------4--2--0--------------|-----------------------|-----------------------|----------------------------|-----0-----------7--0--|--------------5--------|----------------------------|-----------------------|-----------3-----------|
-----------5------2--------|------------------------|-----0-----------------|---------------------------|------------------------|-----0--------------0--|------------------------2--|---------------2--------|-----1--------------1--|---------------------------|---------------2--------|-----------------------|--5-----5-----0h2----4-----|------4-----4--4--4-----|--2---------2-------2--|-----3------------2--------|---------2-----------0--|--0------------0-------|
--0-----0--0--0h-2--2--|--0--0----------0--0--0--|--2--3--2--0-----------0--|-----------------------|--------3----------------|--------------3--------0--|--------0--0--0--------|-----2----------0--0--0--|--2--2--2--0-----------0--|-----------------------|-------------------------|-----------------------2--|-----2--------------0--|-------------------------|-----0--------------2-----|--0--------------------|-----------0-------------|-----------------0--------|
0--0--2--2--0--0-----0--|--------------------------|-----------------------|------------------3-----|--3--3--2--2--0--0--------|-----------------------|------------------------|--0--0--------------2--2--|--0--------0-----------|------------------------|--------------------------|-----------4-----------|---------0-----------2--|-----2--------------------|--------2---------2----|------------------------|-----------------0--------|-----0---------------0-|
-----------------------|--------------0-----0--|--0--0--2--2--0--0--------|-----------------------|--------------------2--|--2--2--2--2--0-----3-----|----0----------0-------|---------0-------------|-----------------0--------|----4----------4-------|---------4-------2-----|--------------------------|------------2-------2--|--------------0--------|-----------------------0--|---------0-------------|----0------------------|-----------0--------------|
-----0--0--0--2--3--2--0--|----------0--0--0--2--2--|-----------------0--------|--3----------2--2--------|--2-----2--2--2-----2--0--|----------------------0--|--------------------------|----------2--------------|--------------------------|-------------------------|-----------------0--------|-----0----------------0--|
--0-2-0-----0--------------|--------------------------|---------------------|---------3-----3--3--2--2--|--0--0--------------------|---------------------|---------------------------|--------2--2--0--------0--|--------------0------|---------------2--2--2--2--|-----------------------4--|--------------4------|------------0--------------|--------------------2-----|-----------2---------|---------------------------|-----------------0--------|--------0------------|
-----------------------|----------------|------------------------|-----------------------|------------0h5-|--5---------------------|----------0------------|-----0----------|--------2---------------|----------4------------|-----4----------|------------------------|-------2---------2-----|--2-------------|-----4---------4-----4--|----0---------------0--|----------------|--2---------------2-----|
----2------------------------|-------------------------|------5p3p0h3----------------|----------0h3-3----------|--2----------------0---------|--------------------2----|-------------------4---------|-----------------4-------|----------------2---------2--|-------2------2----------|------------0----------------|--0----------------------|
---------------2--------------|--------------------8-----7-|-----------------5p3p0-5------|----------------------------|-------------2----------------|--0--------------5-----5----|----4-----4-------------------|--4----4--2--0--------------|-------2-------------------2--|----------------------------|-----------------------0------|----------------------------|
-----5-----------------|--7--5-----3-------------|----------5----2--------|-----------5-----------|--------5--------3-------|------------------------|--------5--------------|--5--------------4-------|---------------------2--|-----------------------|-------------------------|------------------------|-----0-----------7--0--|--------------5-------5--|-------5----------4-----|-----------------------|-----------3-------------|----3----------2--------|
----------------------|------------------------|----------0-------------|---------------0------|-----------0------------|-----0------------------|---------------2------|-----------2------------|-----2-------------2----|----------------------|------------------------|------------------------|------4-----4---------|--4-----4---------4-----|--4-------------4-------|---------2--0---------|-----2---------------2--|-------------2----------|
-----------------------|-----------------------|------------------------|-----------------------|--0--------------------|--------3---------------|------------2----------|--0---------------0----|--------2---------------|-----------------------|--4---4----------------|-----4---------4-----4--|----4-------4-------2--|----------2-------2----|--2---------------2-----|-------2---------0-----|-------------0---------|------------------------|
---------------------8--|----7-----------------|-------------------------|--3-----------0---------|---------------1------|-----------1----------0--|--2-----------0------5--|----5----------0------|-----------0----------0--|-----4--------4------0--|------------2---------|--2-----2----------------|-----------2------------|---------0------------|-----0-------------5-----|--------0---------------|----------------------|----------------3--------|
----------------------|------------------------|------------------------|--------------0-------|-----0---------------0--|-----------0------------|----------------------|-----2---------------2--|-----------1------------|--------------0-------|------------------------|------------------------|------5---------------|--4---------4-----4-----|--4-----2---------2-----|---------3---------2--|---------------2--------|-----0---------------0--|
---------0--0--0--0--0--|--2--2--0--0-----------0--|----2--3--2--0----------|------------------------|--------------3--0--------|----------------3--0----|---------0--------------|-----2--0--------------0--|----2--2--2--0----------|---------x--------------|--------------4-----------|----------------4-------|----2----x-----2--------|-----0--------------2-----|-------0--------------2-|------------------------|-----------------0--------|-------------------0----|
--0--0--0--2--2--0--0-----|--0-----------------------|-----------------------3--|-----3--3--2--2--0--0-----|--0--0--0--2--2--0--0-----|-----------------------2--|-----------------------4--|--------------------------|--------------0-----------|--------2-----------0-----|--------------------------|--0-----------------------|
------------0--0--0--2--|--2--0--0-----------0----|--0--2--3--2--0-----0----|------------------------|-----------3-------------|-----------------3--0----|2--0--------0--0--0--2--|--2--0--0-----------0----|--0--2--4--2--0----------|2-----------------------|-------------------------|-----------------4-------|---------2--------------|--0--------------2-------|--------0--------------2-|------0-----------------|--------------0----------|--------------------0----|
--0--0--0--2--2--0-2-0-----|--0-----------------------|------------------------3--|--0--3--3--2--2--0--0-----|--0--0--0--2--2--0-2-0--0--|--0-----------------2--2--|------------------------4--|-----4--4--2--2--0--------|--------------0------------|--------------------0-----|---------------------------|--0-----------------------|
--------------0--0--0--2--|--2--0--0-----------0--0--|--------------------------|-----------3--0-----------|--2--0--------0--0--0--2--|--2--0--0-----------0--0--|--------------------------|-----------4--------------|-----------2--------------|--0--------------2--------|--------0-----------------|--------------0-----------|
--0--2--3--2--0-----------|--0--0--0--2--2--0-2-0-----|--------0--------3--0-----|------------------------3--|--0--2--2--2--0-----------|--0--0--0--2--2--0-2-0-----|-----------------4--------|------------------------4--|--------0--------------2--|---------------------------|--------------------0-----|---------------------------|
--0-----------------------|--------------0--0--0-2-2--|--0--3--3--2--2--0--0-----|---------------------------|--0--------------------2--|--2--0--------0--0--0-2-2--|-----4--4--2--2--0--------|--2------------------------|--------------------0-----|-----------2---------------|--0-----------------------|--------0------------------|
--2--0--0-----------0--0--|--0--2--3--2--0-----------|-----------3--0-----------|--------0--------3--0-----|--2--0--0-----------0--0--|--0--2--2--2--0-----------|-----------4--------------|-----------------4--------|--0--------------2--------|--------0--------------2--|--------------0-----------|--------------------0-----|
--0--0--0-2-2--2--0-2-0-----|--0-----------------------|-------------------------3--|--0--3--3--2--2--0--0-----|--0--0--0-2-2--2--0-2-0--0--|-----------------------2--|-------------------------4--|-----4--4--2--2--0--------|----------------------------|--------------------0-----|----------------------------|--0-----------------------|
--------------0--0--0--2--|--2--0--0-----------0--0--|--------------------------|-----------3--0-----------|--2--0--------0--0--0--2--|--2--0--0-----------0--0--|--2-----------------------|-----------4--------------|-----------2--------------|--0--------------2--------|--------0-----------------|--------------0-----------|
--0--2--3--2--0-----------|--0--0--0--2--2--0-2-0-----|--------0--------3--0-----|------------------------3--|--0--2--2--2--0-----------|--0--0--0--2--2--0-2-0-----|-----------------4--------|------------------------4--|--------0--------------2--|---------------------------|--------------------0-----|---------------------------|
--0-----------------------|--------------0--0--0--2--|-----3--3--2--2--0--0-----|--------------------------|-----------------------2--|--2--0--------0--0--0--2--|--------------------------|--------------------------|--------2-----------0-----|-----------2--------------|--0-----------------------|--------0-----------------|
--2--0--0------------0--0--|--0--2--3--2--0-----------|-----------3----0----------|--------0--------3--0-----|--2--0--0------------0--0--|--0--2--4--2--0-----------|-----------4---------------|-----------------4--------|--0---------------2--------|--------0--------------2--|--------------0------------|--------------------0-----|
--0--0--0--2--2--0--0-----|--0-----------------------|----------------------|-----------------------3--|-----3--3--2--2--0--0-----|----------------------|--0--0--0--2--2--0--0-----|-----------------------2--|--2--0--------0-------|-----------------------4--|--------4--------0--0-----|--------------4-------|--------------0-----------|-----------------------0--|--2--------2----------|--------------------------|--0-----------------------|--------0-------------|
-----------------------|---------------------|------------------------|-----------------------|-----------------0h5-|--5---------------------|--------0--------------|--0------------------|--------2---------------|--------4--------------|--4------------------|------------------------|-----2--------------2--|---------------------|-----4---------4-----4--|--0--------------0-----|---------------------|--2---------------2-----|
----2------------------------|-------------------------|------5p3p0h3----------------|----------0h3-3----------|--2----------------0---------|--------------------2----|-------------------4---------|-----------------4-------|----------------2---------2--|-------2------2----------|------------0----------------|--0----------------------|
-------------2-----------------|----------------8-----7----|---------------5p3p0-5---------|---------------------------|-----------2----------------0--|-------------5-----5-------|----4----4---------------------|----4--2--0----------------|-------2-----------------2-----|---------------------------|---------------------0---------|---------------------------|
--5------------------7--|--5-----3--------------|-----5-----2------------|--------5---------------|-----5--------3--------|------------------------|-----5------------------|--5-----------4--------|-----------------2------|------------------------|-----------------------|------------------------|--0------------7--0-----|-----------5-----------|--------5-----4---------|------------------------|--------3--------------|--3--------2------------|
-----------------------|-------8-----7----5-----|---------------7--5--0---|--------0--------------|--2---------------------|--5--------------------0-|--------2--------------|--2----5--5----------5--|------------------5------|-----------------------|-------0----------------|-------------------------|-----4--------------4--|------------------0-----|---------7--0------------|--2--------------2-----|------------------------|-------------------------|
--3--------------------|--5--------------------|-----------------------|--------3--------------|-----------------------|--------0--------------|--------0----0---------|--4-----------2--------|--------2--------------|-----------------------|-----------------------|-----------------------|-----5-----------------|-----------4-----------|-----4--------------4--|--3---------------3----|-----0--2--------------|--2p-0-----------2-----|
----------------------|---------------------|-----------------------|--0--------------0----|------------0--------|--------0--------------|--2--------------2----|------------2--------|--------2--------------|----------------------|---------------------|-----------------------|--------------4-------|---------4-----------|-----4-------4---------|-----------2----------|------2--------------|--2---------------2----|
Tabbed by Aoakaua
Please rate this tab:
x1.0