Marcy Playground – I Smell Sex And Candy tab

h= hammerp= pull off------------------------------------------|------------------------------------------|-4-4-4444-4-------------------------------|-4-4-4444-4--5-5-5--4--4--4-4-4-4-4-4-----| -2-2-2222-2--5-5-5--4--4--4-4-4-4-4-4-----|-------------3-5-3--2--2--2-2-2-2-2-2-----|
------------------------------------------|------------------------------------------|-4-4-4444-4-------------------------------|-4-4-4444-4--5-5-5--4--4--4-4-4-4-4-4-----| -2-2-2222-2--5-5-5--4--4--4-4-4-4-4-4-----|-------------3-5-3--2--2--2-2-2-2-2-2-----|
------------------------------------------|------------------------------------------|-4-4-4444-4-------------------------------|-4-4-4444-4--5-5-5--4--4--4-4-4-4-4-4-----| -2-2-2222-2--5-5-5--4--4--4-4-4-4-4-4-----|-------------3-5-3--2--2--2-2-2-2-2-2-----|
------------------------------------------|------------------------------------------|------------------------------------------|-4-4-4-4-4-4-4-4--------------------------|-4-4-4-4-4-4-4-4--------------------------|-2-2-2-2-2-2-2-2--------------------------|
--------------------|--------------------|--2h4-2-------------|--------4-2p0-------|--------------------|--------------------|
------------------------------------------|------------------------------------------|-4-4------2-2-----2h4-2-------------------|-4-4--5-5-2-2-----------4-2p0-------------| -2-2--5-5-0-0-----------------------------|------3-3---------------------------------|
------------------------------------------|------------------------------------------|-4-4------2-2-----2h4-2-------------------|-4-4--5-5-2-2-----------4-2p0-------------| -2-2--5-5-0-0-----------------------------|------3-3---------------------------------|
------------------------------------------|------------------------------------------|-4-4------2-2-----2h4-2-------------------|-4-4--5-5-2-2-----------4-2p0-------------| -2-2--5-5-0-0-----------------------------|------3-3---------------------------------|
----------------|----------------|----------------|--2-2-2-2-------|--0-0-0-0-------|----------------|
--2-2-2-2---------------------------------|--3-3-3-3---------------------------------|--2-2-2-2-2-2-2-2-4-4-4-4-----------------|--0-0-0-0-2-2-2-2-4-4-4-4-5-5-5-5---------| ----------0-0-0-0-2-2-2-2-5-5-5-5---------|--------------------------3-3-3-3---------|
--2-2-2-2---------------------------------|--3-3-3-3---------------------------------|--2-2-2-2-2-2-2-2-4-4-4-4-----------------|--0-0-0-0-2-2-2-2-4-4-4-4-5-5-5-5---------| ----------0-0-0-0-2-2-2-2-5-5-5-5---------|--------------------------3-3-3-3---------|
------------------------------------------|------------------------------------------|-4-4-4-4----------------------------------|-4-4-4-4----------------------------------|-2-2-2-2----------------------------------|------------------------------------------|
------------------------------------------|------------------------------------------|-4-4-4444-4-------------------------------|-4-4-4444-4--5-5-5--4--4--4-4-4-4-4-4-----| -2-2-2222-2--5-5-5--4--4--4-4-4-4-4-4-----|-------------3-5-3--2--2--2-2-2-2-2-2-----|
------------------------------------------|------------------------------------------|-4-4-4444-4-------------------------------|-4-4-4444-4--5-5-5--4--4--4-4-4-4-4-4-----| -2-2-2222-2--5-5-5--4--4--4-4-4-4-4-4-----|-------------3-5-3--2--2--2-2-2-2-2-2-----|
------------------------------------------|------------------------------------------|-4-4-4444-4-------------------------------|-4-4-4444-4--5-5-5--4--4--4-4-4-4-4-4-----| -2-2-2222-2--5-5-5--4--4--4-4-4-4-4-4-----|-------------3-5-3--2--2--2-2-2-2-2-2-----|
------------------------------------------|------------------------------------------|-4-4-4444-4-------------------------------|-4-4-4444-4--5-5-5--4--4--4-4-4-4-4-4-----| -2-2-2222-2--5-5-5--4--4--4-4-4-4-4-4-----|-------------3-5-3--2--2--2-2-2-2-2-2-----|
------------------------------------------|------------------------------------------|------------------------------------------|-4-4-4-4-4-4-4-4--------------------------|-4-4-4-4-4-4-4-4--------------------------|-2-2-2-2-2-2-2-2--------------------------|
--------------------|--------------------|--2h4-2-------------|--------4-2p0-------|--------------------|--------------------|
------------------------------------------|------------------------------------------|-4-4------2-2-----2h4-2-------------------|-4-4--5-5-2-2-----------4-2p0-------------| -2-2--5-5-0-0-----------------------------|------3-3---------------------------------|
------------------------------------------|------------------------------------------|-4-4------2-2-----2h4-2-------------------|-4-4--5-5-2-2-----------4-2p0-------------| -2-2--5-5-0-0-----------------------------|------3-3---------------------------------|
------------------------------------------|------------------------------------------|-4-4------2-2-----2h4-2-------------------|-4-4--5-5-2-2-----------4-2p0-------------| -2-2--5-5-0-0-----------------------------|------3-3---------------------------------|
----------------|----------------|----------------|--2-2-2-2-------|--0-0-0-0-------|----------------|
--2-2-2-2---------------------------------|--3-3-3-3---------------------------------|--2-2-2-2-2-2-2-2-4-4-4-4-----------------|--0-0-0-0-2-2-2-2-4-4-4-4-5-5-5-5---------| ----------0-0-0-0-2-2-2-2-5-5-5-5---------|--------------------------3-3-3-3---------|
--2-2-2-2---------------------------------|--3-3-3-3---------------------------------|--2-2-2-2-2-2-2-2-4-4-4-4-----------------|--0-0-0-0-2-2-2-2-4-4-4-4-5-5-5-5---------| ----------0-0-0-0-2-2-2-2-5-5-5-5---------|--------------------------3-3-3-3---------|
------------------------------------------|------------------------------------------|-4-4-4-4----------------------------------|-4-4-4-4----------------------------------|-2-2-2-2----------------------------------|------------------------------------------|
------------------------------------------|------------------------------------------|-4-4-4444-4-------------------------------|-4-4-4444-4--5-5-5--4--4--4-4-4-4-4-4-----| -2-2-2222-2--5-5-5--4--4--4-4-4-4-4-4-----|-------------3-5-3--2--2--2-2-2-2-2-2-----|
------------------------------------------|------------------------------------------|-4-4-4444-4-------------------------------|-4-4-4444-4--5-5-5--4--4--4-4-4-4-4-4-----| -2-2-2222-2--5-5-5--4--4--4-4-4-4-4-4-----|-------------3-5-3--2--2--2-2-2-2-2-2-----|
------------------------------------------|------------------------------------------|-4-4-4444-4-------------------------------|-4-4-4444-4--5-5-5--4--4--4-4-4-4-4-4-----| -2-2-2222-2--5-5-5--4--4--4-4-4-4-4-4-----|-------------3-5-3--2--2--2-2-2-2-2-2-----|
Please rate this tab:
x1.0