Marie Digby - Paint Me In Your Sunshine tab

---------------------------------------------------------|------------------------------------------------- Intro--|X1-----6------------9---------7------------11------ Verse--|X4--7----7------11----11----9--9------12------12-----------|-7-7-----7--11--11----11-9-9---9--12---12------12--------|---------------------------------------------------------|
Paint me in your sunshine Wake my sleepy eyes Round me in your comfort Stay with me for all of time
-------------------------------------------------|-------------------------------------------------|----7---------11--------6----------2-------------|--9--9-----12---------7---7-----4---4------------|-9-9--9--12--12--12--7-7----7--4-4----4----------|-------------------------------------------------|
Reach your hand, I'll follow
-------------------------------------------------|-------------------------------------------------|----7---------11--------6----------1-------------|--9--9-----12---------7---7-----2----2-----------|-9-9--9--12--12--12--7-7----7--2-2----2----------|-------------------------------------------------|
Darken clouds for your rays of hope
---------------------------------------------------------|------------------------------------------------- Intro--|X1-----6------------9---------7------------11------ Verse--|X4--7----7------11----11----9--9------12------12-----------|-7-7-----7--11--11----11-9-9---9--12---12------12--------|---------------------------------------------------------|
So paint me in your sunshine Walk with me, stay by my side Fill my head with stories For love and war and glory
-------------------------------------------------|-------------------------------------------------|----7---------11--------6----------2-------------|--9--9-----12---------7---7-----4---4------------|-9-9--9--12--12--12--7-7----7--4-4----4----------|-------------------------------------------------|
Reach your hand, I'll follow
-------------------------------------------------|-------------------------------------------------|----7---------11--------6----------1-------------|--9--9-----12---------7---7-----2----2-----------|-9-9--9--12--12--12--7-7----7--2-2----2----------|-------------------------------------------------|
Light the path that will lead me home
--------------------------------------------------|--------------------------------------------------|-----6------------9---------7------------11-------|--7----7------11----11----9--9------12------12----|X2-7-7-----7--11--11----11-9-9---9--12---12------12-|--------------------------------------------------|Home X2
--------------------------------------------------|--------------------------------------------------|----2-------9----------7---------11---------------|X3--4------11---11-----9---9----12----12------------|-4-4---11--11---11--9-9---9-12--12-----12---------|--------------------------------------------------|
One day the world will grow colder Everything we've come to cherish crumbles And only then will we turn back and remember your glow
---------------------------------------------------------|---------------------------------------------------------|-----6------------9---------7------------11------ Verse--|X4--7----7------11----11----9--9------12------12-----------|-7-7-----7--11--11----11-9-9---9--12---12------12--------|---------------------------------------------------------|
Paint me in your sunshine Leave the part of you behind Tell me where I'll find you And send me off to another day Till we meet tomorrow
-------------------------------------------------|-------------------------------------------------|----7---------11--------6----------2-------------|--9--9-----12---------7---7-----4---4------------|-9-9--9--12--12--12--7-7----7--4-4----4----------|-------------------------------------------------|
Reach your hand, I'll follow
-------------------------------------------------|-------------------------------------------------|----7---------11--------6----------1-------------|--9--9-----12---------7---7-----2----2-----------|-9-9--9--12--12--12--7-7----7--2-2----2----------|-------------------------------------------------|
Hold me close till the day that I grow old
---------------------------------------------------------|---------------------------------------------------------|-----6------------9---------7------------11------ Verse--|X4--7----7------11----11----9--9------12------12-----------|-7-7-----7--11--11----11-9-9---9--12---12------12--------|---------------------------------------------------------|
Oh, Oh, Oh, Oh, Oh [x2] Mm, Hmm, Hmm, Hmm [x2]
Tap to rate this tab
 
# A B C D E F G H I J K L M N O P Q R S T U V W X Y Z