Marilyn Manson - Sweet Dreams tab

            Sweet Dreams                                   


main guitar
                                                         
E||--------------------------|--------------------------|B||--------------------------|--------------------------|G||--------------------------|--------------------------|D||--------5-----6-----5-----|--------------------------|A||--3--3-----3-----3-----3--|--------5/-6--------5/-7--|E||--------------------------|--3--3--------2--2--------|
--------------------------|--------------------------|--------------------------|--------------------------|--------------------------|--------------------------|--------5-----6-----5-----|--------------------------|--3--3-----3-----3-----3--|--------5/-6--------5/-7--|--------------------------|--3--3--------2--2--------|
--------------------------|--------------------------|--------------------------|--------------------------|--------------------------|--------------------------|--------5-----6-----5-----|--------------------------|--3--3-----3-----3-----3--|--------5/-6--------5/-7--|--------------------------|--3--3--------2--2--------|
--------------------------|--------------------------|--------------------------|--------------------------|--------------------------|--------------------------|--------5-----6-----5-----|--------------------------|--3--3-----3-----3-----3--|--------5/-6--------5/-7--|--------------------------|--3--3--------2--2--------|
--------------------------|--------------------------|--------------------------|--------------------------|--------------------------|--------------------------|--------5-----6-----5-----|--------------------------|--3--3-----3-----3-----3--|--------5/-6--------5/-7--|--------------------------|--3--3--------2--2--------|
--------------------------|--------------------------|--------------------------|--------------------------|--------------------------|--------------------------|--------5-----6-----5-----|--------------------------|--3--3-----3-----3-----3--|--------5/-6--------5/-7--|--------------------------|--3--3--------2--2--------|
--------------------------|--------------------------|--------------------------|--------------------------|--------------------------|--------------------------|--------5-----6-----5-----|--------------------------|--3--3-----3-----3-----3--|--------5/-6--------5/-7--|--------------------------|--3--3--------2--2--------|
--------------------------|-------------------|-------------------|--------------------------|-------------------|-------------------|--------------------------|-------------------|-------------------|--------5-----6-----5-----|-------------------|--5----------------|--3--3-----3-----3-----3--|------3------------|--3----------------|--------------------------|-------------------|-------------------|
--------------------|-------------------|--------------------|--------------------|-------------------|--------------------|--------------------|-------------------|--------------------|--------------------|--5----------------|--------------------|--6--------5--------|--3----------------|--6--------5--------|--4--------3--------|-------------------|--4--------3--------|
--------------------------|--------------------------|--------------------------|--------------------------|--------------------------|--------------------------|--6--6--6--6--6--6--6--6--|--6--6--6--6--6--5--5--5--|--6--6--6--6--6--6--6--6--|--6--6--6--6--6--5--5--3--|--4--4--4--4--4--4--4--4--|--4--4--4--4--4--3--3-----|
--------------------------|--------------------------|--------------------------|--------------------------|--------------------------|--------------------------|--5--5--5--5--5--5--5--5--|--6--6--6--6--6--6--6--5--|--3--3--3--3--3--3--3--3--|--6--6--6--6--6--6--6--5--|--------------------------|--4--4--4--4--4--4--4--3--|
--------------------------|--------------------------|--------------------------|--------------------------|--------------------------|--------------------------|--6--6--6--6--6--6--6--6--|--5--5--5--5--5--5--5--5--|--6--6--6--6--6--6--6--6--|--5--5--5--5--5--5--5--5--|--4--4--4--4--4--4--4--4--|--3--3--3--3--3--3--3--3--|
--------------------------|--------------------------|--------------------------|--------------------------|--------------------------|--------------------------|--------5-----6-----5-----|--------------------------|--3--3-----3-----3-----3--|--------5/-7--------5/-6--|--------------------------|--3--3--------2--2--------|
--------------------------|--------------------------|--------------------------|--------------------------|--------------------------|--------------------------|--------5-----6-----5-----|--------------------------|--3--3-----3-----3-----3--|--------5/-7--------5/-6--|--------------------------|--3--3--------2--2--------|
--------------------------|--------------------------|--------------------------|--------------------------|--------------------------|--------------------------|--------5-----6-----5-----|--------------------------|--3--3-----3-----3-----3--|--------5/-7--------5/-6--|--------------------------|--3--3--------2--2--------|
--------------------------|--------------------------|--------------------------|--------------------------|--------------------------|--------------------------|--------5-----6-----5-----|--------------------------|--3--3-----3-----3-----3--|--------5--7--------5--6--|--------------------------|--3--3--------2--2--------|
--------------------------|--------------------------|--------------------------|--------------------------|--------------------------|--------------------------|--------5-----6-----5-----|--------------------------|--3--3-----3-----3-----3--|--------5/-6--------5/-7--|--------------------------|--3--3--------2--2--------|
--------------------------|--------------------------|--------------------------|--------------------------|--------------------------|--------------------------|--------5-----6-----5-----|--------------------------|--3--3-----3-----3-----3--|--------5/-6--------5/-7--|--------------------------|--3--3--------2--2--------|
--------------------------|--------------------------|--------------------------|--------------------------|--------------------------|--------------------------|--------5-----6-----5-----|--------------------------|--3--3-----3-----3-----3--|--------5/-6--------5/-7--|--------------------------|--3--3--------2--2--------|
--------------------------|--------------------------|-------------------|--------------------------|--------------------------|-------------------|--------------------------|--------------------------|-------------------|--------5-----6-----5-----|--------------------------|-------5-----------|--3--3-----3-----3-----3--|--------5/-6--------5/-7--|--3----------------|--------------------------|--3--3--------2--2--------|-------------------|
--------------------|-------------------|--------------------|--------------------|-------------------|--------------------|--------------------|-------------------|--------------------|--6--------5--------|--5----------------|--6--------5--------|--6--------5--------|--3----------------|--6--------5--------|--4--------3--------|-------------------|--4--------3--------|
-------------------|--------------------|-------------------|-------------------|--------------------|-------------------|-------------------|--------------------|-------------------|--5----------------|--6--------5--------|--5----------------|--3----------------|--6--------5--------|--3----------------|-------------------|--4--------3--------|-------------------|
--------------------|--------------------------|--------------------------|--------------------|--------------------------|--------------------------|--------------------|--------------------------|--------------------------|--6--------5--------|--6--6--6--6--6--6--6--6--|--6--6--6--6--6--5--5--5--|--6--------5--------|--6--6--6--6--6--6--6--6--|--6--6--6--6--6--5--5--3--|--4--------3--------|--4--4--4--4--4--4--4--4--|--4--4--4--4--4--3--3-----|
--------------------------|--------------------------|--------------------------|--------------------------|--------------------------|--------------------------|--5--5--5--5--5--5--5--5--|--6--6--6--6--6--6--6--5--|--3--3--3--3--3--3--3--3--|--6--6--6--6--6--6--6--5--|--------------------------|--4--4--4--4--4--4--4--3--|
--------------------------|--------------------------|-------------------|--------------------------|--------------------------|-------------------|--------------------------|--------------------------|-------------------|--6--6--6--6--6--6--6--6--|--5--5--5--5--5--5--5--5--|--5----------------|--6--6--6--6--6--6--6--6--|--5--5--5--5--5--5--5--5--|--3----------------|--4--4--4--4--4--4--4--4--|--3--3--3--3--3--3--3--3--|-------------------|
-------------------|-------------------|-------------------|-------------------|-------------------|-------------------|-------------------|-------------------|-------------------|-------------------|-------------------|-------------------|--6----------------|--5----------------|--6----------------|--5----------------|--6----------------|--3----------------|--6----------------|--3----------------|--4----------------|-------------------|--4----------------|-------------------|
-------------------|-------------------|---------------------|-------------------|-------------------|---------------------|-------------------|-------------------|---------------------|--6----------------|--5----------------|--6--6--6------------|--6----------------|--3----------------|--6--6--6------------|--4----------------|-------------------|--4--4--4------------|
----------------11--------|------------------------|------------------------|--11------13----------11--|--13-----11-------------|------------------------|--------------------------|--------------11b-------|------------------------|--------------------------|------------------------|--10----8----10---------|--------------------------|------------------------|-----------------9b-----|--------------------------|------------------------|------------------------|
------------------------|------------------------|---------------------11--|------------------------|------------------------|----------11--8----------|------------------------|------------------------|--10---------------------|------------------------|--10--------12----12----|-------------------------|-----------------8r-----|------------------------|-------------------------|--8----11----11---------|------------------------|-------------------------|
--13r---------------|--------------------|------------------|------------------|--------------------|--13----------------|------------------|------------------|--------------------|--------------------|------------------|------------------|--------------------|--------------------|------------------|------------------|--------------------|--------------------|------------------|------------------|--------------------|--------------------|------------------|------------------|
------------------|------------------|------------------|------------------|------------------|------------------|------------------|------------------|------------------|------------------|------------------|------------------|------------------|------------------|------------------|------------------|------------------|------------------|------------------|------------------|------------------|------------------|------------------|------------------|
------------------|------------------|-------------------|--------------------|------------------|------------------|-------------------|--------------------|------------------|------------------|-------------------|--------------------|------------------|------------------|--5----------------|--6--------5--------|------------------|------------------|--3----------------|--6--------5--------|------------------|------------------|-------------------|--4--------3--------|
-------------------|--------------------|-------------------|-------------------|--------------------|-------------------|-------------------|--------------------|-------------------|--5----------------|--6--------5--------|--5----------------|--3----------------|--6--------5--------|--3----------------|-------------------|--4--------3--------|-------------------|
--------------------|-------------------|--------------------|--------------------|-------------------|--------------------|--------------------|-------------------|--------------------|--6--------5--------|--5----------------|--6--------5--------|--6--------5--------|--3---------------|--6--------5--------|--4--------3--------|-------------------|--4--------3--------|
--------------------------|--------------------------|--------------------------|--------------------------|--------------------------|--------------------------|--6--6--6--6--6--6--6--6--|--6--6--6--6--6--5--5--5--|--6--6--6--6--6--6--6--6--|--6--6--6--6--6--5--5--5--|--4--4--4--4--4--4--4--4--|--4--4--4--4--4--3--3--3--|
--------------------------|--------------------------|--------------------------|--------------------------|--------------------------|--------------------------|--5--5--5--5--5--5--5--5--|--6--6--6--6--6--6--6--5--|--3--3--3--3--3--3--3--3--|--6--6--6--6--6--6--6--5--|--------------------------------|--4--4--4--4--4--4--4--3--|
--------------------------|--------------------------|--------------------------|--------------------------|--------------------------|--------------------------|--6--6--6--6--6--6--6--6--|--5--5--5--5--5--5--5--5--|--6--6--6--6--6--6--6--6--|--5--5--5--5--5--5--5--5--|--4--4--4--4--4--4--4--4--|--3--3--3--3--3--3--3--3--|
--------------------------|--------------------------|--------------------------|--------------------------|--------------------------|--------------------------|--6--6--6--6--6--6--6--6--|--5--5--5--5--5--5--5--5--|--6--6--6--6--6--6--6--6--|--5--5--5--5--5--5--5--5--|--4--4--4--4--4--4--4--4--|--3--3--3--3--3--3--3--3--|
--------------------------|--------------------|-------------------|--------------------------|--------------------|-------------------|--------------------------|--------------------|-------------------|--5--5--5--5--5--5--5--5--|--6--------5--------|--5----------------|--3--3--3--3--3--3--3--3--|--6--------5--------|--3----------------|--------------------------|--4--------3--------|-------------------|
------------------|------------------||------------------|------------------||------------------|------------------||------------------|------------------||------------------|------------------||------------------|------------------||
overdub
E||------|------|------|------|------|------|------|------|------|------|------|B||------|------|------|------|------|------|------|------|------|------|------|G||------|------|------|------|------|------|------|------|------|------|------|D||------|------|------|------|------|------|------|------|------|------|------|A||------|------|------|------|------|------|------|------|------|------|------|E||------|------|------|------|------|------|------|------|------|------|------|
------|------|------|------|--------------------------|------|------|------|------|--------------------------|------|------|------|------|--------------------------|------|------|------|------|--------------------------|------|------|------|------|--------5/-6--------5/-7--|------|------|------|------|--3--3--------2--2--------|
--------------------------|--------------------------|--------------------------|--------------------------|--------------------------|--------------------------|--------5-----6-----5-----|--------------------------|--3--3-----3-----3-----3--|--------5/-6--------5/-7--|--------------------------|--3--3--------2--2--------|
--------------------------|--------------------------|------------------|--------------------------|--------------------------|------------------|--------------------------|--------------------------|------------------|--------5-----6-----5-----|--------------------------|------------------|--3--3-----3-----3-----3--|--------5/-6--------5/-7--|------------------|--------------------------|--3--3--------2--2--------|------------------|
------------------|------------------|------------------|------------------|------------------|------------------|------------------|------------------|------------------|------------------|------------------|------------------|------------------|------------------|------------------|------------------|------------------|------------------|------------------|------------------|------------------|------------------|------------------|------------------|
------------------|------------------|------------------|------------------|------------------|------------------|------------------|------------------|------------------|------------------|------------------|------------------|------------------|------------------|------------------|------------------|------------------|------------------|------------------|------------------|------------------|------------------|------------------|------------------|
------------------|------------------|------------------|------------------|------------------|------------------|------------------|------------------|------------------|------------------|------------------|------------------|------------------|------------------|------------------|------------------|------------------|------------------|------------------|------------------|------------------|------------------|------------------|------------------|
------------------|------------------|------------------|------------------|------------------|------------------|------------------|------------------|------------------|------------------|------------------|------------------|------------------|------------------|------------------|------------------|------------------|------------------|------------------|------------------|------------------|------------------|------------------|------------------|
------------------|------------------|------------------|------------------|------------------|------------------|------------------|------------------|------------------|------------------|------------------|------------------|------------------|------------------|------------------|------------------|------------------|------------------|------------------|------------------|------------------|------------------|------------------|------------------|
------------------|--------------------------|--------------------------|------------------|--------------------------|--------------------------|------------------|--------------------------|--------------------------|------------------|--------5-----6-----5-----|--------------------------|------------------|--3--3-----3-----3-----3--|--------5/-6--------5/-7--|------------------|--------------------------|--3--3--------2--2--------|
--------------------------|--------------------------|--------------------------|--------------------------|--------------------------|--------------------------|--------5-----6-----5-----|--------------------------|--3--3-----3-----3-----3--|--------5/-6--------5/-7--|--------------------------|--3--3--------2--2--------|
--------------------------|--------------------------|--------------------------|--------------------------|--------------------------|--------------------------|--------5-----6-----5-----|--------------------------|--3--3-----3-----3-----3--|--------5/-6--------5/-7--|--------------------------|--3--3--------2--2--------|
--------------------------|--------------------------|----------------------|--------------------------|--------------------------|----------------------|--------------------------|--------------------------|--5--3----5----7b-----|--------5-----6-----5-----|--------------------------|----------------------|--3--3-----3-----3-----3--|--------5/-6--------5/-7--|----------------------|--------------------------|--3--3--------2--2--------|----------------------|
----------------------|----------------------|----------------------|----------------------|----------------------|---------------6b-----|--5--3----5----7b-----|--5--3----5----7b-----|--5--3----5-----------|----------------------|----------------------|----------------------|----------------------|----------------------|----------------------|----------------------|----------------------|----------------------|
----------------------|----------------------|------------------|----------------------|----------------------|------------------|--5--3----5----7b-----|--5--3----5----7b-----|------------------|----------------------|----------------------|------------------|----------------------|----------------------|------------------|----------------------|----------------------|------------------|
------------------|------------------|------------------|------------------|------------------|------------------|------------------|------------------|------------------|------------------|------------------|------------------|------------------|------------------|------------------|------------------|------------------|------------------|------------------|------------------|------------------|------------------|------------------|------------------|
------------------|------------------|------------------|------------------|------------------|------------------|------------------|------------------|------------------|------------------|------------------|------------------|------------------|------------------|------------------|------------------|------------------|------------------|
--------------------------|--------------------------|--------------------------|--------------------------|--------------------------|--------------------------|--------5-----6-----5-----|--------------------------|--3--3-----3-----3-----3--|--------5/-6--------5/-7--|--------------------------|--3--3--------2--2--------|
--------------------------|--------------------------|--------------------------|--------------------------|--------------------------|--------------------------|--------5-----6-----5-----|--------------------------|--3--3-----3-----3-----3--|--------5/-6--------5/-7--|--------------------------|--3--3--------2--2--------|
--------------------------|--------------------------|--------------------------|--------------------------|--------------------------|--------------------------|--------5-----6-----5-----|--------------------------|--3--3-----3-----3-----3--|--------5/-6--------5/-7--|--------------------------|--3--3--------2--2--------|
--------------------------|--------------------------|------------------|--------------------------|--------------------------|------------------|--------------------------|--------------------------|------------------|--------5-----6-----5-----|--------------------------|------------------|--3--3-----3-----3-----3--|--------5/-6--------5/-7--|------------------|--------------------------|--3--3--------2--2--------|------------------|
------------------|------------------|------------------|------------------|------------------|------------------|------------------|------------------|------------------|------------------|------------------|------------------|------------------|------------------|------------------|------------------|------------------|------------------|------------------|------------------|------------------|------------------|------------------|------------------|
------------------|------------------|------------------|------------------|------------------|------------------|------------------|------------------|------------------|------------------|------------------|------------------|------------------|------------------|------------------|------------------|------------------|------------------|
--------------------------|--------------------------|--------------------------|--------------------------|--------------------------|--------------------------|--------5-----6-----5-----|--------------------------|--3--3-----3-----3-----3--|--------5/-6--------5/-7--|--------------------------|--3--3--------2--2--------|
--------------------------|--------------------------|--------------------------|--------------------------|--------------------------|--------------------------|--------5-----6-----5-----|--------------------------|--3--3-----3-----3-----3--|--------5/-6--------5/-7--|--------------------------|--3--3--------2--2--------|
--------------------------|--------------------------|--------------------------|--------------------------|--------------------------|--------------------------|--------5-----6-----5-----|--------------------------|--3--3-----3-----3-----3--|--------5/-6--------5/-7--|--------------------------|--3--3--------2--2--------|
--------------------------|--------------------------|----------------------|--------------------------|--------------------------|----------------------|--------------------------|--------------------------|--5--3----5----7b-----|--------5-----6-----5-----|--------------------------|----------------------|--3--3-----3-----3-----3--|--------5/-6--------5/-7--|----------------------|--------------------------|--3--3--------2--2--------|----------------------|
----------------------|----------------------|---------------------|---------------6b-----|----------------------|---------------------|--5--3----5-----------|--5----3----5--7b-----|--5----3----5--------|----------------------|----------------------|---------------------|----------------------|----------------------|---------------------|----------------------|----------------------|---------------------|
--8----6----8--10b-----|--8----6----8---------|--8----6----8--10b-----|-----------------------|---------------6b-----|-----------------------|-----------------------|----------------------|-----------------------|-----------------------|----------------------|-----------------------|-----------------------|----------------------|-----------------------|-----------------------|----------------------|-----------------------|
--8--6----8----10b-----|--13----------------|------------------|-----------------------|--------------------|------------------|-----------------------|--------------------|------------------|-----------------------|--------------------|------------------|-----------------------|--------------------|------------------|-----------------------|--------------------|------------------|
-------------------|------------------|------------------||-------------------|------------------|------------------||--7----------------|------------------|------------------||-------------------|------------------|------------------||-------------------|------------------|------------------||-------------------|------------------|------------------||
Tap to rate this tab
 
# A B C D E F G H I J K L M N O P Q R S T U V W X Y Z