Marilyn Manson – Choklit Factory tab

Song: Choklit Factory
Artist: Marilyn Manson
Written by: Daisy?,Gien?,Zsa Zsa?
Lyrics by: Marilyn Manson
Album: Marilyn Manson and the Spookie Kids "After School Special"
tabed by: Per "Pogo"" Stenberg
pogo@pianotabs.net or fanta98@hotmail.com


Very cool song. The main riff is really good.
Do anyone no what the boy is saying in the beging?


Intro/Main Riff/Verse

-------------------------------------------------------------------------------------------------2----------0-----2-2-----------------0-2-----2-------5-----0----0h3----------------------
-------------------------------------------------------------------------------2----------0----0---0----------0-2-----2---2---0----0h3----------------
-------------------------------------------------------------------------------------------------2----------0-----2-2-----------------0-2-----2-------5-----0----0h3----------------------
-------------------------------------------------------------------------------2----------0-/4-0--------------0-2-------------0----0h3----------------
Intro B/Verse B (Keyboard)
----17-16-17-16-----17-16--15--------------15---------------------------------------------------------------------------------------------------------------
Verse Gtr 2 "Where's the choklit?"
----------------------------------------------------------------------------------------------2^------------0-----2-2-----------------0-2-----2-------5-----0----0h3----------------------
----------------------------------------------------------------------------2^------------0-2---2-------------0-2------5---5--0----0h3----------------
----------------------------------------------------------------------------------------------2^------------0----0---0----------------0-2-----2---2---2-----0----0h3----------------------
----------------------------------------------------------------------------2^------------0-/4-0--------------0-2-------------0----0h3----------------
Solo (I think this correct,but I'm not telling you how many times you hit each note, so that is up to you)
-----------------------------------------------12----12------------------------------------------10-13-13----13----13---------9h11---------9h11-------9h11------------------------9h11----------9h11--------9h11--------------------------------------------------------------------------------------------------------------------------------------------------
----------------------------------------------12----14----12--13~-10-10-------13~-10-10--------12-------13----13----13----------------12-------------12--11----11-9-----------------------------------------------------------------------------------------------------------------------------------------------------------------------------------------------------------
----12----12-------------------------------13----13----13--10^---------10^------10^---------------------12-10-12----12-10-----------------------------------------------------------------------------------------------------------------------------------
Verse 2
-------------------------------------------------------------------------------------------------2----------0-----2-2-----------------0-2-----2-------5-----0----0h3----------------------
-------------------------------------------------------------------------------2----------0----0---0----------0-2-----2---2---0----0h3----------------
-------------------------------------------------------------------------------------------------2----------0-----2-2-----------------0-2-----2-------5-----0----0h3----------------------
-------------------------------------------------------------------------------2----------0-/4-0--------------0-2-------------0----0h3----------------
Verse 2 B (Keyboard)
----17-16-17-16-----17-16--15--------------15---------------------------------------------------------------------------------------------------------------
Chours (Very Cool Chours, I don't think it is right I can't hear so good, I have a bad recording)
---------------------------------------------------------------------------------------------7-7-10--7-7-10--7-5-7--0-------0-------0-----
Verse 3
-------------------------------------------------------------------------------------------------2----------0-----2-2-----------------0-2-----2-------5-----0----0h3----------------------
-------------------------------------------------------------------------------2----------0----0---0----------0-2-----2---2---0----0h3----------------
-------------------------------------------------------------------------------------------------2----------0-----2-2-----------------0-2-----2-------5-----0----0h3----------------------
-------------------------------------------------------------------------------2----------0-/4-0--------------0-2-------------0----0h3----------------
Verse 3 B (Keyboard)
----17-16-17-16-----17-16--15--------------15---------------------------------------------------------------------------------------------------------------
Chours (If you don't think this right then do it you self!)
---------------------------------------------------------------------------------------------7-7-10--7-7-10--7-5-7--0-------0-------0-----
Bridge "Is it raining?, is it snowing?"
---------------------------------------------------------------------------------------------------------------------------------------5-7---5-7---5-7---5-7--------5-0-----0-----0-----0------5h6h7--
---------------------------------------------------------------------------------------------------------------------------------------5-7---5-7---5-7---5-7----------0-----0-----0-----0------5h6h7-0
---------------------------------------------------------------------------------------------------------------------------------------5-7---5-7---5-7---5-7--------5-0-----0-----0-----0------5h6h7--
-----------------------------------------------------------------------------------------------------------------------------------5---5-7---5-7---5-7---5-7--5h6h7---0-----0-----0-----0-------------The last time you play it you use a wah-wah pedal.
Verse 4
-------------------------------------------------------------------------------------------------2----------0-----2-2-----------------0-2-----2-------5-----0----0h3----------------------
-------------------------------------------------------------------------------2----------0----0---0----------0-2-----2---2---0----0h3----------------
-------------------------------------------------------------------------------------------------2----------0-----2-2-----------------0-2-----2-------5-----0----0h3----------------------
-------------------------------------------------------------------------------2----------0-/4-0--------------0-2-------------0----0h3----------------
Verse 4 B (Keyboard)
----17-16-17-16-----17-16--15--------------15---------------------------------------------------------------------------------------------------------------
Chours
---------------------------------------------------------------------------------------------7-7-10--7-7-10--7-5-7--0-------0-------0-----
Well, hope you liked it... :)
Please rate this tab:
x1.0