Marilyn Manson – Choklit Factory tab ver. 2

Song: Choklit Factory
Artist: Marilyn Manson (And the Spooky Kids)
Written by: Daisy,Gien,Zsa Zsa
Lyrics by: Marilyn Manson
Album/Demo: Marilyn Manson and the Spooky Kids "After School Special"
tabed by: JYK
JYK876@gmail.com


I'm fixing the last guys tab and shortening it. His verses were just a bit off along 
with some other stuff.

Intro/Main Riff/Verse (Repeats, obviously)

--------------------------------|--------------------------------|--------------------------------|----2----------0-----0-2--------|----------0-2-----2-------------|-0----0h3-----------------------|
--------------------------|--------------------------|--------------------------|----2----------0----5---2-|----------0-2---------5---|-0----0h3-----------------|
Intro B/Verse B (Keyboard)
----17---16---17-16-----17----16--|-15------------------15-----------|----------------------------------|----------------------------------|----------------------------------|----------------------------------|
Verse Gtr 2 "Where's the Choklit?"
---------------------------------|---------------------------------|---------------------------------|-2^------------0-----0--2--------|----------0-2-----2--------------|-0----0h3------------------------|
----------------------------|----------------------------|----------------------------|-2^------------0---5---2----|----------0-2-------5-------|-0----0h3-------------------|
Solo (I think this correct,but I'm not telling you how many times you hit each note, so that is up to you)(This is beyond me.. -JYK)
-----------------------------------------------12----12----|--------------------------------------10-13-13----13----13-|--------9h11---------9h11-------9h11-----------------------|-9h11----------9h11--------9h11----------------------------|-----------------------------------------------------------|-----------------------------------------------------------|
----------------------------------------------12----14----12-|-13~-10-10-------13~-10-10--------12-------13----13----13----|------------12-------------12--11----11-9--------------------|-------------------------------------------------------------|-------------------------------------------------------------|-------------------------------------------------------------|
----12----12------------------------------|-13----13----13--10^---------10^------10^-|--------------------12-10-12----12-10-----|------------------------------------------|------------------------------------------|------------------------------------------|
Chours (I'm not too sure about this. There are like little notes in between that make it hard to transcribe. Especially since there is distortion)-----------------------------------------------------| (Just really add the open E's whenever)-----------------------------------------------------|-----------------------------------------------------|-----------------------------------------------------|A-7-7---7----10-10-----7-10-10-7-5-7-5-----10-10-7~--|E-0-----------0---0----------------------------------|
Bridge "Is it raining?, is it snowing?" (Not sure if this is right)
----------------------------------|----------------------------------|----------------------------------|----------------------------------|---5-7---5-7---5-7---5-7--------5-|-0-----0-----0-----0------5h6h7---|
----------------------------------|----------------------------------|----------------------------------|----------------------------------|---5-7---5-7---5-7---5-7----------|-0-----0-----0-----0------5h6h7-0-|
----------------------------------|----------------------------------|----------------------------------|----------------------------------|---5-7---5-7---5-7---5-7--------5-|-0-----0-----0-----0------5h6h7---|
----------------------------------|----------------------------------|----------------------------------|--------------------------------5-|---5-7---5-7---5-7---5-7--5h6h7---|-0-----0-----0-----0--------------|The last time you play it you use a wah-wah pedal.
Alright so there are like 4 verses. The guitar tab lingo I used in this: ~ = Let ring h = Hammer on ^ = Bend
Please rate this tab:
x1.0