Marilyn Manson - Get My Rocks Off tab

Song: Get My Rocks Off
Artist: Marilyn Manson
Written by: Dr Hook
Lyrics by: Dr Hook
Rateing: Song: 3 of 5  Solo: 5 of 5
Album: Last tour on earth (Bonus Disc)
tabed by: Per "Pogo" Stenberg
fanta98@hotmail.com or pogo@pianotabs.net
(This song maybe is in D...I dunno)

COOL song... the solo is super good.
Too bad it is a cover... John5 plays the solo very
well...I love him. This song was a bicht tabing but I did it.
Hope you like it.Intro
(Use a littel vibration after hiting the chord)

-------------4~----4~----2~---------
Main Riff/Verse (Use some nice wah-wah) "Some men need some killer weed..."
------------------------------------------------------------------------------------------------------------------------2b----2-2--5-2---2-2--5-----0-Chours"Get my rocks off..."
-----------------------------------9-9-9-7-7-7-----9-9-9-7-7-7-----7-7-7-5-5-5--7/--------------
Post-Chours "Get my rock off a mounten and..."
---------------------11-11-99--11-11-99--9--9--77--------00-Verse 2 (The funky guitar)
---------------------------22-5-2-7b-0--22-5-2-7b-0---------------------------
Verse 2 (Bassynth) -------------------------------------- -------------------------------------- -------------------------------------- -------------------------------------- -------------------------------------- -222225555522222-22222555557777700000- Verse 2 (Guitar)
------------------------------------------------------------------------------------------------------------------------2b----2-2--5-2---2-2--5-----0-Chours
-----------------------------------9-9-9-7-7-7-----9-9-9-7-7-7-----7-7-7-5-5-5--7/--------------
Post-Chours
---------------------11-11-99--11-11-99--9--9--77--------00-
Break (Keyboard?Flute?) This part sounds like some thiing you hear when your high...
-------------------------9~9~^-9~^-10~-11~-11~^-------------------------------------------------------------------------------------------------
Solo/Verse 3 (Good solo and it is not that hard. Ending I'm not 100% sure of)
---------------------------------------------------------------------------------------------------------------------------------------------------------------------12-14^^^-----12--14^-14p12h14p12-------14----------------------12-14----------14----------------------14p12-----7~-7p5-5b/12--12-14----------------------------------------------------------------------------------------------------------------------
----------------------------------------------15---------------------------------------------------------------------------------------------------------------14------15-14-12~--14~-12h14p12-------14~--14p12-14-14-14----------------------------------12h14---------------------------------------------------------------------------------------------------
Verse 3 (Bassynth) -------------------------------------- -------------------------------------- -------------------------------------- -------------------------------------- -------------------------------------- -222225555522222-22222555557777700000- Verse 3 (Guitar)
------------------------------------------------------------------------------------------------------------------------2b----2-2--5-2---2-2--5-----0-Chours
-----------------------------------9-9-9-7-7-7-----9-9-9-7-7-7-----7-7-7-5-5-5--7/--------------
Post-Chours
---------------------11-11-99--11-11-99--9--9--77--------00-
Outro (Keyboard) ------ -10/-- ------ ------ ------ ------ Outro (Guitar) (You hear this part when I starts to fade away) ------ ------ -4444- -4444- -2222- ------ Hope you liked it. comments? fanta98@hotmail.com or pogo@hotmail.com =========== Song: Get My Rocks Off Artist: Marilyn Manson Written by: Dr Hook (Solo by John5) Lyrics by: Dr Hook Rating Solo: 4 of 5 Album: Last tour on earth (Bonus Disc) tabed by: Per "Pogo" Stenberg fanta98@hotmail.com or pogo@pianotabs.net Note: Fun little solo that fits in the song. Easy like hell but very fun to play. I'm to more John Petrucci (Dream Theater) Stuff now so now I think tabing this is very easy comperd to Mr Petruccis solos. But I Still love you John5. Hope you understand this tab. Enjoy Standard Tunning Legend: h = hammer-on p = pull-of b = bend r = realse / = slide down \ = slide upp ~ = vibration T = taping . = palm muted ()= ghost note <>= harmoni # = Pinch Harmoni x = mute with your left hand * = tremelo picking Solo
|-------------------------------------------------------------------------------||-------------------------------------------------------------------------------||----------------------------12-14b15rp12----12--14b15r-14p12h14p12-----------/9||----------------------12-14--------------14-----------------------14p12--------||7~-5-5b7r--/12--12-14--------------------------------------------------14p12---||-------------------------------------------------------------------------------|
|-------------------------------12-----------------------||----------------------------------15p12-15--------------||-7~------------------------------------------7-9-7-9-11-||----7p5h7-<7>-7p5h7-7-7---14b---------------------------||--------------------------------------------------------||--------------------------------------------------------|comments?fanta98@hotmail.com or pogo@hotmail.com
Tap to rate this tab
 
# A B C D E F G H I J K L M N O P Q R S T U V W X Y Z