Marilyn Manson - Meat For A Queen tab

          Song: Meat for a Queen
          Artist: Marilyn Manson
          Written by: Daisy? Gein? Gacy?
          Lyrics by: Marilyn Manson
          Album:?
          tabed by: Per "Pogo" Stenberg
          fanta98@hotmail.com
          
          
          WOW! What a song...
          I have got over 1000 requests of this song
          and I hade never heard it. So 1 day when I was
          in a CD store there was this CD with Demos.
          I don't know wich spooky kids tape this is from.
          I going to spain tomorrow so I did 2 hard tabs.
          Man that you fear for keyboard and 
          Meat for a Queen for guitar.
          This took me about 10 minuets to figure out the song.
          The intro is very hard to play.
          
          
Intro C -------0-----------0---- -----1---1-------1---1-- ---0-------0---0-------0 -----------------0-2-0-- -3-----------0---------- ---------0-3------------
-------0-----------0---- -----1---1-------1---1-- ---0-------0---0-------0 -----------------0-2-0-- -3-----------0---------- ---------0-3------------
-0-0-0- -1-3-5- -0-0-6- -2-4-6- -3-5-0- -------
There is a very quiet lead in the song. Listen to the song you will figure out how to play it.
----11----11- -12----12---- ------------- ------------- ------------- -------------
(Luke... use the Dist,trust your feelings...) Bridge (Rythm Guitar) Let every note ring...
--------- --------- -2----2-- -2----2-- -0----0-- ---------
Bridge (Lead Guitar) I think it gos like this
C --------------- -----1---1---1- ---0---4---4--- --------------- -3------------- ---------------
Main riff (Play fast)
------------------------------------- ------------------------------------- -8-3---------8-3---------8-3--------- -8-3-5-xxxxx-8-3-5-xxxxx-8-3-5-xxxxx- -6-1-5-xxxxx-6-1-5-xxxxx-6-1-5-xxxxx- -----3-xxxxx-----3-xxxxx-----3-xxxxx-
Verse 1 (Bass) --------------- --------------- --------------- -3-3-3-3-3-6p5- Bridge 2 (Rythm Guitar)
------------- ------------- --5--4--5--4- --5--4--5--4- --3--2--3--2- -------------
Bridge 2 (Lead Guitar)
----12---10- -13----12--- ------------ ------------ ------------ ------------
Verse 2 (Bass) --------------- --------------- --------------- -3-3-3-3-3-6p5- Chours/Main riff
------------------------------------- ------------------------------------- -8-3---------8-3---------8-3--------- -8-3-5-xxxxx-8-3-5-xxxxx-8-3-5-xxxxx- -6-1-5-xxxxx-6-1-5-xxxxx-6-1-5-xxxxx- -----3-xxxxx-----3-xxxxx-----3-xxxxx-
Break 2.14 ------------------ ------------------ ------------------ ------------------ -10-9-8-7-9-8-7-6- ------------------
----12---10- -13----12--- ------------ ------------ ------------ ------------
Chours/Main riff
------------------------------------- ------------------------------------- -8-3---------8-3---------8-3--------- -8-3-5-xxxxx-8-3-5-xxxxx-8-3-5-xxxxx- -6-1-5-xxxxx-6-1-5-xxxxx-6-1-5-xxxxx- -----3-xxxxx-----3-xxxxx-----3-xxxxx-
Hope you like the tab! :)
Tap to rate this tab
 
# A B C D E F G H I J K L M N O P Q R S T U V W X Y Z