Marilyn Manson – Irresponsible Hate Anthem Live tab

Irresponsible Hate Anthem Live - Marilyn Manson
live Grotesque Burlesque
Tabbed by Manel EML
standard tuning

Intro

|----------------------------------------------------||----------------------------------------------------||----------------------------------------------------||--4-4-4-7-7--7-7-7-9-9--4-4-4-7-7--9-9-9-7----------||--4-4-4-7-7--7-7-7-9-9--4-4-4-7-7--9-9-9-7----------||--2-2-2-5-5--5-5-5-7-7--2-2-2-5-5--7-7-7-5----------|
|----------------------------------------------------||----------------------------------------------------||--------------------------------------------4-------||--4-4-4-7-7--7-7-7-9-9--4-4-4-7-7--2-2-2-3--5-------||--4-4-4-7-7--7-7-7-9-9--4-4-4-7-7--2-2-2-3--5-------||--2-2-2-5-5--5-5-5-7-7--2-2-2-5-5--0-0-0-1--0-------|
Verse
|----------------------------------------------------||----------------------------------------------------||--6--6--6--6--6--6--6--6----------------------------||--5--5--5--5--5--5--5--5----------------------------|x2|--4--4--4--4--4--4--4--4----------------------------||----------------------------------------------------|
Pre-chorus
|----------------------------------------------------||----------------------------------------------------||----------------------------------------------------||--4-4-4-7-7--7-7-7-9-9--4-4-4-7-7--9-9-9-7----------||--4-4-4-7-7--7-7-7-9-9--4-4-4-7-7--9-9-9-7----------||--2-2-2-5-5--5-5-5-7-7--2-2-2-5-5--7-7-7-5----------|
|----------------------------------------------------||----------------------------------------------------||--------------------------------------------4-------||--4-4-4-7-7--7-7-7-9-9--4-4-4-7-7--2-2-2-3--5-------||--4-4-4-7-7--7-7-7-9-9--4-4-4-7-7--2-2-2-3--5-------||--2-2-2-5-5--5-5-5-7-7--2-2-2-5-5--0-0-0-1--0-------|
Verse
|----------------------------------------------------||----------------------------------------------------||--6--6--6--6--6--6--6--6----------------------------||--5--5--5--5--5--5--5--5----------------------------|x2|--4--4--4--4--4--4--4--4----------------------------||----------------------------------------------------|
Pre-chorus
|----------------------------------------------------||----------------------------------------------------||----------------------------------------------------||--4-4-4-7-7--7-7-7-9-9--4-4-4-7-7--9-9-9-7----------||--4-4-4-7-7--7-7-7-9-9--4-4-4-7-7--9-9-9-7----------||--2-2-2-5-5--5-5-5-7-7--2-2-2-5-5--7-7-7-5----------|
|----------------------------------------------------||----------------------------------------------------||----------------------------------------------------||--4-4-4-7-7--7-7-7-9-9--4-4-4-7-7--2-2-2-3----------||--4-4-4-7-7--7-7-7-9-9--4-4-4-7-7--2-2-2-3----------||--2-2-2-5-5--5-5-5-7-7--2-2-2-5-5--0-0-0-1----------|
Chorus
|----------------------------------------------------||-----------------------------8--11------------------||--------------------------11------------------------|__|--4/10-9-7-9-7--4/10-9-7-----------4/10-9-7-9-7-----| ||--4/10-9-7-9-7--4/10-9-7-----------4/10-9-7-9-7-----| ||--2/8--7-5-7-5--2/8--7-5-----------2/8--7-5-7-5-----| |
|-x2|----------------------------------------------------| ||----------------------------------------------------| ||----------------------------------------------------| ||--2----3--------------------------------------------|__||--2----3--------------------------------------------||--0----1--------------------------------------------|
Bridge
|----------------------------------------------------||-----8----8----8----8----8----11--------------------||--11---11---11---11---11---11----11-----------------||----------------------------------------------------|x2|----------------------------------------------------||----------------------------------------------------|
Fill
|----------------------------------------------------||----------------------------------------------------||----------------------------------------------------||--10~---10~-----------------------------------------||--x-----x-------------------------------------------||--8~----8~------------------------------------------|
Verse
|----------------------------------------------------||----------------------------------------------------||--6--6--6--6--6--6--6--6----------------------------||--5--5--5--5--5--5--5--5----------------------------|x2|--4--4--4--4--4--4--4--4----------------------------||----------------------------------------------------|
Pre-chorus
|----------------------------------------------------||----------------------------------------------------||----------------------------------------------------||--4-4-4-7-7--7-7-7-9-9--4-4-4-7-7--9-9-9-7----------||--4-4-4-7-7--7-7-7-9-9--4-4-4-7-7--9-9-9-7----------||--2-2-2-5-5--5-5-5-7-7--2-2-2-5-5--7-7-7-5----------|
|----------------------------------------------------||----------------------------------------------------||----------------------------------------------------||--4-4-4-7-7--7-7-7-9-9--4-4-4-7-7--2-2-2-3----------||--4-4-4-7-7--7-7-7-9-9--4-4-4-7-7--2-2-2-3----------||--2-2-2-5-5--5-5-5-7-7--2-2-2-5-5--0-0-0-1----------|
Chorus
|----------------------------------------------------||-----------------------------8--11------------------||--------------------------11------------------------|__|--4/10-9-7-9-7--4/10-9-7-----------4/10-9-7-9-7-----| ||--4/10-9-7-9-7--4/10-9-7-----------4/10-9-7-9-7-----| ||--2/8--7-5-7-5--2/8--7-5-----------2/8--7-5-7-5-----| |
|-x2|----------------------------------------------------| ||----------------------------------------------------| ||----------------------------------------------------| ||--2----3--------------------------------------------|__||--2----3--------------------------------------------||--0----1--------------------------------------------|
Bridge
|-------------------------------------| |----x-----||-----8----8----8----8----8----11-----| |----8-----||--11---11---11---11---11---11----11--| |----11----||-------------------------------------|x6 |----10----||-------------------------------------| |----0-----||-------------------------------------| |----0-----|
Pre-chorus
|----------------------------------------------------||----------------------------------------------------||----------------------------------------------------||--4-4-4-7-7--7-7-7-9-9--4-4-4-7-7--9-9-9-7----------||--4-4-4-7-7--7-7-7-9-9--4-4-4-7-7--9-9-9-7----------||--2-2-2-5-5--5-5-5-7-7--2-2-2-5-5--7-7-7-5----------|
|----------------------------------------------------||----------------------------------------------------||----------------------------------------------------||--4-4-4-7-7--7-7-7-9-9--4-4-4-7-7--2-2-2-3----------||--4-4-4-7-7--7-7-7-9-9--4-4-4-7-7--2-2-2-3----------||--2-2-2-5-5--5-5-5-7-7--2-2-2-5-5--0-0-0-1----------|
Chorus-outro|--------------------------------------------------------||--------------------------------------------------------||--------------------------------------------------------||-4-10-9-7-9-7--4-10-9-7-9-7--4-10-9-7-9-7--4-10-9-7-9-7-||-4-10-9-7-9-7--4-10-9-7-9-7--4-10-9-7-9-7--4-10-9-7-9-7-||-2-8--7-5-7-5--2-8--7-5-7-5--2-8--7-5-7-5--2-8--7-5-7-5-|
|--------------------------------------------------------||--------------------------------------------------------||--------------------------------------------------------||-4-10-9-7-9-7--4-10-9-7-9-7--4-10-9-7-9-7--9-------10---||-4-10-9-7-9-7--4-10-9-7-9-7--4-10-9-7-9-7--9-(x14)-10---||-2-8--7-5-7-5--2-8--7-5-7-5--2-8--7-5-7-5--7-------8----|
|--------------------------------------------------------||--------------------------------------------------------||--------------------------------------------------------||--4--4--4--4--4-----------------------------------------||--4--4--4--4--4-----------------------------------------||--2--2--2--2--2-----------------------------------------|
This tab in as John 5 plays.It sounds well, no?
Please rate this tab:
x1.0