Marilyn Manson - This Is The New Shit tab

This is the new shit-Marilyn Manson
Tabbed by Manel EML

This is my first tab, I hope that you like it.

Tuning - Drop D

E B G D A D


INTRO 

|---------------------------------------------------------||---------------------------------------------------------||---------------------------------------------------------||---------------------------------------------------------||--5--5--5--5----5--5--5--5----5--5--5--5--5--5--5--5--5--||--0--0--0--0----0--0--0--0----0--0--0--0--0--0--0--0--0--|
|---------------------------------------------------------||---------------------------------------------------------||---------------------------------------------------------||---------------------------------------------------------||--5--5---5--5---5--5--5--5--5----------------------------||--0--0---0--0---0--0--0--0--0----------------------------|
|-------------------------|-------------------------------||-------------------------|-------------------------------||-------------------------|-------------------------------||-------------------------|-------------------------------||--5--5--5--5--5--5-------|--5--5--5--5--5--5----19^------||--0--0--0--0--0--0-------|--0--0--0--0--0--0----19^------| |______P.M_______| |______P.M.______|
|-------------------------|-------------------------------||-------------------------|-------------------------------||-------------------------|-------------------------------||-------------------------|-------------------------------||--5--5--5--5--5--5-------|--5--5--5--5--5--5----17^------||--0--0--0--0--0--0-------|--0--0--0--0--0--0----17^------| |______P.M_______| |_______P.M._____|
Riff 1 - x2 - babble babble bich bich
|-------------------------|-------------------------------||-------------------------|-------------------------------||-------------------------|-------------------------------||-------------------------|-------------------------------| |--5--5--5--5--5----------|--5--5--5--5--5----------------||--0--0--0--0--0----------|--0--0--0--0--0----------------| |____P.M._____| |_____P.M.____|
Riff 2
|---------------------------------------------------------||------------------11--------11---------------------------||--14--14--14--14--------14------12--14-------------------||---------------------------------------------------------||---------------------------------------------------------||---------------------------------------------------------|
|---------------------------------------------------------||------------------11--------11---------------------------||--14--14--14--14--------14------12-----------------------||---------------------------------------------------------||---------------------------------------------------------||---------------------------------------------------------|
|---------------------------------------------------------||------------------11--------11---------------------------||--14--14--14--14--------14------12--14-------------------||---------------------------------------------------------||---------------------------------------------------------||---------------------------------------------------------|
|---------------------------------------------------------||------------------11--------11---------------------------||--14--14--14--14--------14------12-----------------------||---------------------------------------------------------||---------------------------------------------------------||---------------------------------------------------------|
Chorus-x2
|---------------------------------------------------------||---------------------------------------------------------||---------------------------------------------------------||---------------------------------------------------------||---------------------------------------------------------||--12--0--0--12--0--0--12--0--0--12--0--0--0--15--0--0----|
|---------------------------------------------------------||---------------------------------------------------------||---------------------------------------------------------||---------------------------------------------------------||---------------------------------------------------------||--15--0--0--15--0--0-----15--0--0--10--0--0--10--0--0----|
|---------------------------------------------------------||---------------------------------------------------------||---------------------------------------------------------||---------------------------------------------------------||---------------------------------------------------------||---10--0--0--10--0--0--12--0--0--12--0--0--12--0--0------|
|---------------------------------------------------------||---------------------------------------------------------||---------------------------------------------------------||---------------------------------------------------------||---------------------------------------------------------||--12--0--0--10--12--10-----------------------------------|
Riff-x3
|---------------------------------------------------------||------------------11--------11---------------------------||--14--14--14--14--------14------12--14-------------------||---------------------------------------------------------||---------------------------------------------------------||---------------------------------------------------------|
|---------------------------------------------------------||------------------11--------11---------------------------||--14--14--14--14--------14------12-----------------------||---------------------------------------------------------||---------------------------------------------------------||---------------------------------------------------------|
|---------------------------------------------------------||------------------11--------11---------------------------||--14--14--14--14--------14------12--14-------------------||---------------------------------------------------------||---------------------------------------------------------||---------------------------------------------------------|
|---------------------------------------------------------||------------------11--------11---------------------------||--14--14--14--14--------14------12\----------------------||---------------------------------------------------------||---------------------------------------------------------||---------------------------------------------------------|
Chorus-x2
|---------------------------------------------------------||---------------------------------------------------------||---------------------------------------------------------||---------------------------------------------------------||---------------------------------------------------------||--12--0--0--12--0--0--12--0--0--12--0--0--0--15--0--0----|
|---------------------------------------------------------||---------------------------------------------------------||---------------------------------------------------------||---------------------------------------------------------||---------------------------------------------------------||--15--0--0--15--0--0------15--0--0--10--0--0--10--0--0---|
|---------------------------------------------------------||---------------------------------------------------------||---------------------------------------------------------||---------------------------------------------------------||---------------------------------------------------------||---10--0--0--10--0--0--12--0--0--12--0--0--12--0--0------|
|---------------------------------------------------------||---------------------------------------------------------||---------------------------------------------------------||---------------------------------------------------------||---------------------------------------------------------||--12--0--0--10--12--10-----------------------------------|
Bridge-x3
|---------------------------------------------------------||---------------------------------------------------------||---------------------------------------------------------||---------------------------------------------------------||--5--5--5--5--6--6--6--6--5--5--5--5/6--6--6\5--5--5--5--||--5--5--5--5--6--6--6--6--5--5--5--5/6--6--6\5--5--5--5--|
Riff
|---------------------------------------------------------||------------------11--------11---------------------------||--14--14--14--14--------14------12--14-------------------||---------------------------------------------------------||---------------------------------------------------------||---------------------------------------------------------|
|---------------------------------------------------------||------------------11-------------------------------------||--14--14--14--14--------14-------------------------------||---------------------------------------------------------||---------------------------------------------------------||---------------------------------------------------------|
|---------------------------------------------------------||------------------11--------11---------------------------||--14--14--14--14--------14------12--14-------------------||---------------------------------------------------------||---------------------------------------------------------||---------------------------------------------------------|
|---------------------------------------------------------||------------------11-------------------------------------||--14--14--14--14--------14-------------------------------||---------------------------------------------------------||---------------------------------------------------------||---------------------------------------------------------|
Chorus-x2
|---------------------------------------------------------||---------------------------------------------------------||---------------------------------------------------------||---------------------------------------------------------||---------------------------------------------------------||--12--0--0--12--0--0--12--0--0--12--0--0--0--15--0--0----|
|---------------------------------------------------------||---------------------------------------------------------||---------------------------------------------------------||---------------------------------------------------------||---------------------------------------------------------||--15--0--0--15--0--0------15--0--0--10--0--0--10--0--0---|
|---------------------------------------------------------||---------------------------------------------------------||---------------------------------------------------------||---------------------------------------------------------||---------------------------------------------------------||---10--0--0--10--0--0--12--0--0--12--0--0--12--0--0------|
|---------------------------------------------------------||---------------------------------------------------------||---------------------------------------------------------||---------------------------------------------------------||---------------------------------------------------------||--12--0--0--10--12--10-----------------------------------|
Outro
|-------------------------|-------------------------------||-------------------------|-------------------------------||-------------------------|-------------------------------||-------------------------|-------------------------------||--5--5--5--5--5--5-------|--5--5--5--5--5--5-------------||--0--0--0--0--0--0-------|--0--0--0--0--0--0-------------| |______P.M_______| |______P.M.______|
Gtr. 1 - x3|---------------------------------------------------------||------------------11--------11---------------------------||--14--14--14--14--------14------12--14-------------------||---------------------------------------------------------||---------------------------------------------------------||---------------------------------------------------------|
|---------------------------------------------------------||------------------11--------11---------------------------||--14--14--14--14--------14------12-----------------------||---------------------------------------------------------||---------------------------------------------------------||---------------------------------------------------------|
|---------------------------------------------------------||------------------11--------11---------------------------||--14--14--14--14--------14------12--14-------------------||---------------------------------------------------------||---------------------------------------------------------||---------------------------------------------------------|
|---------------------------------------------------------||------------------11--------11---------------------------||--14--14--14--14--------14------12-----------------------||---------------------------------------------------------||---------------------------------------------------------||---------------------------------------------------------|
Gtr. 2|---------------------------------------------------------||---------------------------------------------------------||---------------------------------------------------------||---------------------------------------------------------||--5--5--5--5--5--5--5--5--5--5--5--5--5--5--5------------||--0--0--0--0--0--0--0--0--0--0--0--0--0--0--0------------|
|---------------------------------------------------------||---------------------------------------------------------||---------------------------------------------------------||--5--5--5--5--5--5--5--5--5--5--5--5--5--5--5------------||--0--0--0--0--0--0--0--0--0--0--0--0--0--0--0------------||---------------------------------------------------------|
|---------------------------------------------------------||---------------------------------------------------------||---------------------------------------------------------||---------------------------------------------------------||--6--6--6--6--6--6--6--6--6--6--6--6--6--6--6------------||--0--0--0--0--0--0--0--0--0--0--0--0--0--0--0------------|
|---------------------------------------------------------||---------------------------------------------------------||---------------------------------------------------------||---------------------------------------------------------||--5--5--5--5--5--5--5--5--5--5--5--5--5--5--5------------||--0--0--0--0--0--0--0--0--0--0--0--0--0--0--0------------|
thanks.
Tap to rate this tab
 
# A B C D E F G H I J K L M N O P Q R S T U V W X Y Z