Mark Knopfler - Sailing To Philadelphia tab

F#m Eadd9 E-------------------------------------------------|-------------------------------------------------|--4/6---4--4-2-----------2-6-4/1-----------------|------7--------4p2-4---4-------------------------|-------------------------------------------------|-------------------------------------------------|
I'm F#m Jeremiah Dixon I am a Geordie boy A glass of wine with you, sir And the A D E A D E A ladies I'll enjoy All Durham and Northumberland Is measured up by my own D E A D Dmaj7 Eadd9 hand It was my fate from birth To make my mark upon the earth F#m He calls me Charlie Mason A stargazer am I It seems that I was born A D E A D To chart the evening sky They'd cut me out for baking bread E A D E A D But I had other dreams instead This baker's boy from the west country Dmaj7 Eadd9 Would join the Royal Society... Chorus: A E F#m D A We are sailing to Philadelphia C#m Bm E A world away from the coaly Tyne C#m F#m D F#m Sailing to Philadelphia E To draw the line D E A A Mason-Dixon Line
-------------------------------------------------|--------------------------5--------2-------------|----4-6b--4--------4/6--4---6--2h4---2--4--------|--7---------7-4---------------------------4------|-------------------------------------------------|-------------------------------------------------|
-------------------------------------------------|-------------------------------------------------|-6-4---6-4-/1--1-2-1-----------------------------|-----7---------------2-4-------------------------|-------------------------------------------------|-------------------------------------------------|
F#m Now you're a good surveyor, Dixon But I swear you'll make me mad A D E A D The West will kill us both You gullible Geordie lad You talk of liberty E A D E A D How can America be free A Geordie and a baker's boy Dmaj7 Eadd9 In the forests of the Iroquois... F#m Now hold your head up, Mason See America lies there A D E A The morning tide has raised The capes of Delaware Come up and feel the D E A D E A D sun A new morning has begun Another day will make it clear Dmaj7 Eadd9 Why your stars should guide us here... Chorus: A E F#m D A We are sailing to Philadelphia C#m Bm E A world away from the coaly Tyne C#m F#m D F#m Sailing to Philadelphia E To draw the line D E A A Mason-Dixon Line
-------------------------------------------------|---2--5-7---5------------------------------------|---2------6-----4b6rp2-/6---4---6-4--4/6-4-------|---2--------------------------7------4/6---------|-------------------------------------------------|-------------------------------------------------|
-------------------------------------------------|----7br-5--7-5-----------------------------------|--6---------------4h6-4---6--4-2-4b6rp2-4--------|-----------------7------7------------------------|-------------------------------------------------|-------------------------------------------------|
-----------------------------------2-------------|----5-7-7--5b-7b-7-------------------------------|---6---6-6-----------7p6-7-6--4---2--------2-1---|---------------------7-----------4-----2/4-------|-------------------------------------------------|-------------------------------------------------|
----------------------------------5-4-/2---------|---------------/7-(7-5)--5------7--------2-------|--4-4p2---2----/6----------6---------------------|--------4------/7--------------------------------|-------------------------------------------------|-------------------------------------------------|
-----2-----2-------------------------------------|-------5-2---5-2---------------------------------|-2-1------------------------2/19--19p18----------|----------------------------------------21-19----|--------------------/4-0----------------------21-|-------------------------------------------------|
-------0---0-------------------------------------|-------------0-----------------------------------|---2/4---------2-1-------------------------------|-------------------2-2/4.....--------------------|-------------------------------------------------|-------------------------------------------------|
Tap to rate this tab
 
# A B C D E F G H I J K L M N O P Q R S T U V W X Y Z