Mark Tremonti – Doesnt Matter tab

Mark Tremonti - Doesn't Matter
From the solo album "All I Was"
Tuning - C# Standard (see youtube Orlando footage)
Tabbed by jjhand

Look on youtube for some live footage of Mark playing this song. Nice heavy 
chords and fast soloing. Please rate/comment.

           Main Riff -

C#|-----||-----------------------|----------------------|G#|-----||-----------------------|----------------------|E |-----||-----------------------|----------------------|B |-----||-----------------------|----------------------|F#|-----||----------2---3--2---2-|-5--3-----0---3p2-----|C#|-12\-||-0----3-0---0-3--3---3-|-2--2---5-0---------3-|
part 2: play 3x|-------------------------|---------------------||-------------------------|---------------------||-------------------------|---------------------||-------------------------|---------------------||------------2---3--2---2-|-5--3-----0---3p2----||-0--0-0-3-0---0-3--3---3-|-2--2---5-0--------3-|| PM
|
| Guitar 2 on repeats (w/ delay, octave effects)|-0----0--0--0-0---0---0--|-0---0---0--0---0--0-||-3/5--5--5--5-3---3---3--|/7---7---7--0---0--0-||-------------------------|---------------------||-------------------------|---------------------||-------------------------|---------------------||-------------------------|---------------------|
Verse - play Main Riff again "Oh, though I wait like all the times before How I wait to make it right I'm forgiving Oh, that's right because I'm living another life" Chorus - Guitar 1, 2:
A E/G#|-----------------------|-------------------------||-----------------------|-------------------------||-5----5---5-5--5-5---5-|-4----4----4-4--4--4---4-||-5----5---5-5--5-5---5-|-5----5----5-5--5--5---5-||-3----3---3-3--3-3---3-|-2----2----2-2--2--2---2-||-----------------------|-------------------------|
| |
|-----------------------|-------------------------||-----------------------|-------------------------||-9----9---9-9--9-9---9-|-12--12---12-12-12-12-12-||-----------------------|-------------------------||-7----7---7-7--7-7---7-|-10--10---10-10-10-10-10-||-----------------------|-------------------------|
1."Inside the hate is gone I've held it for too long" 2."This time the burden's gone Decided went to love"
Guitar 1 E B/D#|-----------------------|-------------------------||-----------------------|-------------------------||-----------------------|-------------------------||-5----5---5-5--5-5---5-|-4----4----4-4--4--4---4-||-5----5---5-5--5-5---5-|-5----5----5-5--5--5---5-||-3----3---3-3--3-3---3-|-2----2----2-2--2--2---2-|
| |
| Guitar 2 (notice only half the notes are shown since they repeat)|-----------------------|-------------------------||----------12-----------|----------10-------------||-12-12-12-----12-------|-11-11-11----11----------||----------9------------|----------7--------------||-10-10-10-----10-------|--9--9--9-----9----------||-----------------------|-------------------------| play notes 2x play notes 2x
"You could be right but it doesn't matter" Verse 2 - Same as Before "Oh, how I've won and set it right Because I've become, become upright But oh, how I break Might return once again to my old ways But how I fight" Play Chorus Again, hold out chorus ending an additional bar Bridge - strumming is hard to tell here but the notes are right
|------------------------|------------------------||------------------------|------------------------||------------------------|------------------------||------------------------|------------------------||-5--5--5--5--5--5--5--5-|-4--4--4--4--4--4--4--4-||-0--0--0--0--0--0--0--0-|-0--0--0--0--0--0--0--0-|
|------------------------|------------------------||------------------------|------------------------||------------------------|------------------------||------------------------|------------------------||-3--3--3--3--3--3--3--3-|-2--2--2--2--2--2--2--2-||-0--0--0--0--0--0--0--0-|-0--0--0--0--0--0--0--0-|
Solo - Rhythm Guitar Part Chords (played 2x)|------------|------------|------------|-------------||------------|------------|------------|-------------||-7----------|-6----------|-5----------|-------------||-7----------|-7----------|-5----------|-2-----------||-5----------|-4----------|-3----------|-2-----------||------------|------------|------------|-0-----------|
Solo Guitar|-------------------------|---------------------------||-------------------15-17-|-17---17--17----17---------||-----------12-14-16------|------19b-19b---19b-r19p16-||---12-14-16--------------|---------------------------||-14----------------------|---------------------------||-------------------------|---------------------------|
|--------------------------19-|-17~~---------17b19-b19-b19-||-19~~--b20r19-17--------17---|-------17-15----------------||----------------17----19-----|------------16--------------||------------------20---------|----------------------------||-----------------------------|----------------------------||-----------------------------|----------------------------|
*play this part 3x, speed up *************** |-b19r17-15---15----------15-17b19r-15-|-20b22r--19-18-17--17-18--...-19-18||----------17--------15-17-------------|-----------------20----------------||-----------------/16------------------|-----------------------------------||--------------------------------------|-----------------------------------||--------------------------------------|-----------------------------------||--------------------------------------|-----------------------------------|
|-17--17-18-19-18-17--19-18-17--20\-20b22r_p17-----------------------||---20--------------20--------20--------------20p17--17--b22p20p17---||--------------------------------------------------19-------------19-||--------------------------------------------------------------------||--------------------------------------------------------------------||--------------------------------------------------------------------|
|-------------------------------------12-||-20p17~~-20-17-15\12------14-12---------||--------------------14-12-14-12---------||-------------------------------14-12----||----------------------------------------||----------------------------------------|
|-17p12--15p12--14p12--12------------------------------------||------15-----15-----15--15p12--15p12--13p12--15p12--13p12---||-----------------------------14-----15-----15-----15-----15-||------------------------------------------------------------||------------------------------------------------------------||------------------------------------------------------------|
Play Chorus Again (note the chords), Solo Continues:
A E/G# E B/D#|-------------|---------------|-------------------|------------------||-13~---------|---------------|-------------------|------------------||-------------|---------------|----------/11-9-11-|-12~~~~-----------||-------------|-9b10r9~~~~~~~~~/12~~~~\9----------|-------12~~~~-----||-------------|---------------|-------------------|------------------||-------------|---------------|-------------------|------------------|
|--------------------------------------15/17|\15--------15/17\15-|------15/17\15--------15/17\15-------------|--------------------|-11/12--------12-11/12--------12\11/12-----|---12\11/12---------|-------------------------------------------|--------------------|-------------------------------------------|--------------------|-------------------------------------------|--------------------
---------14/15\14---------|-14/15\14--------14-12---------12PH----|--------------------------|----------------------12-----15--------|-12\11/12--------12\11/12-|---------12\11/12-------14-12-------12-|--------------------------|---------------------------------------|--------------------------|---------------------------------------|--------------------------|---------------------------------------|
|-------------|-------------||-------------|-------------||-14~~--------|-------------||-------------|--x\---------||-------------|--x\---------||-------------|--x\---------|
Play Main Riff part 2 (both parts) to end song KEY ************************************ | / slide up | \ slide down | h hammer-on | p pull-off | ~ vibrato | PH pinch harmonic | x Mute note / pick scrape | b Bend | r Bend release ************************************
Please rate this tab:
x1.0