Maroon 5 - Moves Like Jagger tab

Moves Like Jagger - Maroon 5 Ft. Christina Aguilera                      


E||----------------------------|---------------|----------------------------|B||----------------------------|---------------|----------------------------|G||-----------2s--4--2---------|---------------|-----------2s--4--2---------|D||--------2------------4--2---|-----2s--4-----|--------2------------4--2---|A||--2--5--------------------5-|--5---------2--|--2--5--------------------5-|E||----------------------------|---------------|----------------------------|
---------------|---------------------------------------|---------------|----------10s-12-10--------------------|---------------|--------9-----------11-9-------9s-11---|-----2s--4-----|--9--12------------------12-12-------9-|--5---------2--|---------------------------------------|---------------|---------------------------------------|
------------------------------------------|------------------------|----------10s-12-10-----------------------|------------------------|--------9-----------11-9-------9s-11------|------------------------|--9--12------------------12-12-------9----|--------2s-4-----4s-2-2-|---------------------------------------/2-|--2-4-5-----------------|------------------------------------------|-------------2-2--------|
------------------------|--------------------------------------|------------------------|--------------------------------------|------------------------|--------------------------------------|--------2s-4-----4s-2-2-|----4-2----------4-2----------4-2-----|--2-4-5-----------------|--2-----5-5s-2-2-----5-5s-2-2-----5-5-|-------------2-2--------|--------------------------------------|
----------------------------|---------------------------------------|----------------------------|---------------------------------------|-----------2s--4--2---------|---------------------------------------|--------2------------4--2---|-----2s--4-----------2s-4-----4s-2-2---|--2--5--------------------5-|--5---------2--2-4-5-----------------2-|----------------------------|--------------------------2-2----------|
------------------------|-----------------------------------------|------------------------|-----------------------------------------|------------------------|-----------------------------------------|--------2s-4-----4s-2-2-|----4-2----------4-2----------4-2--------|--2-4-5-----------------|--2-----5-5s-2-2-----5-5s-2-2-----5-5s-2-|-------------2-2--------|-----------------------------------------|
-------------------|-------------------------|-----------------------------|-------------------|-------------------------|-----------------------------|-------------------|-------------------------|-----------------------------|-------------------|--9-7--------------------|--9-7------------------------|-------------------|------9-7-------7--------|------9-7-------7------------|--7p-5-7p-5-7p-5-7-|----------10-10---7-10-7-|----------10-10---7-10-10-10-|
--------------------------------------|--------------------------------|--------------------------------------|--------------------------------|--------------------------------------|--------------------------------|--------------------------------------|---------7s-9-7-----------------|--7-----------------7-----------------|-------7--------9-7-------7-----|----7-7s-5-10-10-10---7-7s-5-10-10-10-|--7-10--------------10-10---7-5-|
-------------------------------|-------------------------------------------|--12p-10-----------------------|--12p-10-----------------------------------|---------11p-9-------9---------|---------11p-9-------9------------9--------|---------------12-12---9-12s-9-|---------------12-12---9-12-12-12---9-9----|-------------------------------|----------------------------------------12-|-------------------------------|-------------------------------------------|
-----------------------------|---------------------------------------------|-----------------------------|---------10s-12-10---------------------------|-----------9-----------------|-------9-----------11-9-------9-----------9s-|--12-12-12---9-9----12-12-12-|--9-12------------------12-12---9-9-11-12----|-----------------12----------|---------------------------------------------|-----------------------------|---------------------------------------------|
------------------------------|------------------------------------|------------------------------|------------------------------------|--11-----11p-9-9-----------9s-|--11-----11p-9-9---11p-9------------|-----------------9-9-11-12----|-----------------9-------12-12s-9-9-|-----9-9----------------------|-----9-9----------------------------|------------------------------|------------------------------------|
-------------------|-------------------------------------------------|-------------------|---------------------10s-12s-10------------------|--11p-9------------|--11p-9------------9------------11-9-------9s-11-|--------12-12s-9-9-|--------12-12-9-12-------------------12-12-------|-------------------|-------------------------------------------------|-------------------|-------------------------------------------------|
---------------|------------------------------|---------------|------------------------------|------------9s-|--11-----11p-9-9-----------9s-|--9-9-11-12----|-----------------9-9-11-12----|---------------|-----9-9----------------------|---------------|------------------------------|
------------------------------------|-------------------|------------------------------------|-------------------|--11-----11p-9-9---11p-9------------|--11p-9------------|-----------------9-------12-12s-9-9-|--------12-12s-9-9-|-----9-9----------------------------|-------------------|------------------------------------|-------------------|
--19\-----------------------|-------------------------------|----------------------------|--12p-10-----------------------|------11-9------------------|---------11p-9-------9---------|-----------9----9----9----9-|---------------12-12---9-12s-9-|-------------12---12---12---|-------------------------------|----------------------------|-------------------------------|
-------------------------------------------|-----------------------------|--12p-10-----------------------------------|-----------------------------|---------11p-9-------9------------9--------|-----------9-----------------|---------------12-12---9-12-12-12---9-9----|--12-12-12---9-9----12-12-12-|----------------------------------------12-|-----------------12----------|-------------------------------------------|-----------------------------|
------------------------------------|--19p-17--------------------------|---------10s-12-10------------------|---------19p-17-------17----------|-------9-----------11-9-------9-----|----------------19-19----16-19-16-|--9-12------------------12-12---9-7-|----------------------------------|------------------------------------|----------------------------------|------------------------------------|----------------------------------|
--19p-17-----------------------------------------|---------19p-17-------17-------------17----------|----------------19-19----16-19-19-19----16-16-14-|-------------------------------------------------|-------------------------------------------------|-------------------------------------------------|
--------------------------------|-----------17s-19s-17----------------------|-----------17-------------------|--------17------------19-17-------17-------|--19-19-19----16-16-14-19-19-19-|--16-19---------------------19-19----16----|--------------------------------|----------------------------------------19-|--------------------------------|-------------------------------------------|--------------------------------|-------------------------------------------|
----------------------------------|-------------------|----------------------------------|-------------------|----11-9s-11-----11-9s-11-11-9-11-|--\11-11-9-11-9-11-|--9----------9-9------------------|-------------------|----------------------------------|-------------------|----------------------------------|-------------------|
---------------------------------------------|---------------------------------------------|-------9-11-9--------11------9-11-9----------|--9-12--------12s-14----9-12--------12s-14-9-|---------------------------------------------|---------------------------------------------|
----------------------------------------|----------------------------------------|------------9-11-9----------------------|-------9-12--------12s-14-9-------------|--12-9----------------------12-9-12s-14-|----------------------------------------|
------------------------------------------------|--10-------------------------10-12-10h-12-10----|--------9h-11-9h-11-11-11-11-----------------11-|-----12-----------------------------------------|------------------------------------------------|------------------------------------------------|
--------------------------------------|----------12-10-----------------------|--11-9-11-------11-9-11-9-9s-11-9s-11-|--------------------------------------|--------------------------------------|--------------------------------------|
---------------------------------------------|-----------------------------|---------------------------------------------|-----------------------------|-------9-11-9--------11------9-11-9----------|------------9-11-9--------11-|--9-12--------12s-14----9-12--------12s-14-9-|-------9-12--------12s-14----|---------------------------------------------|--12-9-----------------------|---------------------------------------------|-----------------------------|
-------------------------------|-------------------------------|--------12-15------------------|--12p-10-----------------------|--11-14------------------------|---------11p-9-------9---------|--------------9----9----9----9-|---------------12-12---9-12s-9-|----------------12---12---12---|-------------------------------|-------------------------------|-------------------------------|
-------------------------------------------|-----------------------------|--12p-10-----------------------------------|-----------------------------|---------11p-9-------9------------9--------|-----------9-----------------|---------------12-12---9-12-12-12---9-9----|--12-12-12---9-9----12-12-12-|----------------------------------------12-|-----------------12----------|-------------------------------------------|-----------------------------|
------------------------------------|--19p-17--------------------------|---------10s-12-10------------------|---------19p-17-------17----------|-------9-----------11-9-------9-----|----------------19-19----16-19-16-|--9-12------------------12-12---9-7-|----------------------------------|------------------------------------|----------------------------------|------------------------------------|----------------------------------|
--19p-17-----------------------------------------|---------19p-17-------17-------------17----------|----------------19-19----16-19-19-19----16-16-14-|-------------------------------------------------|-------------------------------------------------|-------------------------------------------------|
--------------------------------|-----------17-------------------|--19-19-19----16-16-14-19-19-19-|--------------------------------|--------------------------------|--------------------------------|
Tap to rate this tab
 
# A B C D E F G H I J K L M N O P Q R S T U V W X Y Z