Mars Volta – Drunkship Of Lanterns tab

The Mars Volta
Drunkship of Lanterns
De-loused in the Comatorium

Several parts updated/fixed (chorus, breakdown, bridge)


Intro/Pre-Verse - 2x|-0~~|-(0)-(0)-------------0~~(0)--(0)--------------------||-0~~|-(0)-(0)-------------0~~(0)--(0)---x-x-x-x-x-x-x-x--||-0~~|-(0)-(0)------------10~(10)-(10)---x-x-x-x-x-x-x-x--||-0~~|-(0)-(0)-------------9~~(9)--(9)---x-x-x-x-x-x-x-x--||-0~~|-(0)-(0)---3/5--0-0--0~~(0)--(0)---x-x-x-x-x-x-x-x--||----|----------------------------------------------------|
Verse (w/wah or envelope filter) PM--------------------------------------------|-------------------------|--------------------||-------------------------|--------------------||-------------------------|--------------------||--------5-----------5----|----------7---------||----7-x---7-----5-7---7--|----5h7---------7-7-||-5-----------5-----------|-5------5-----------|
---------------------------------------------------:|-----------------------------|-----------------------||-----------------------------|-----------------------||-----5-5-x-4-4-----5--4--7-4-|----5--4-4-----5--4--7-||-7-x------------7------------|-7----------7----------||-----------------------------|-----------------------||-----------------------------|-----------------------|
PM-------------------------------------------------------:|------------------------------|----------------------------||------------------------------|----------------------------||------------------------------|----------------------------||------5------------------5----|-------5----------------5---||----x----5-5h7---x-5-5-7---7--|---7-----5h7----x-5-5-7---7-||-5-------------5--------------|-5---x--------5-------------|
PM----------------------------: PM---------------:|-----------------------------|-----------------------||-----------------------------|-----------------------||-----5-5-x-4-4-----5--4--7-4-|----5--4-4-----5--4--7-||-7-x------------7------------|-7----------7----------||-----------------------------|-----------------------||-----------------------------|-----------------------|
PM--------------------------------------------------:|---------------------------|---------------------------||---------------------------|---------------------------||---------------------------|---------------------------||----5----5---------5----5--|------5----5---------5---5-||------7----7-----7---------|----7------------------7---||-5------------5-------5----|-5-------5----5--5-5-------|
PM----------------------------: PM---------------:|-----------------------------|-----------------------||-----------------------------|-----------------------||-----5-5-x-4-4-----5--4--7-4-|----5--4-4-----5--4--7-||-7-x------------7------------|-7----------7----------||-----------------------------|-----------------------||-----------------------------|-----------------------|
PM--------------------------------------------------:|----------------------------|--------------------------||----------------------------|--------------------------||----------------------------|--------------------------||----5----5---------5---5----|----5----5---------5------||------7----7-----7---7---7--|------7----7-----7----7-7-||-5------------5-------------|-5------------5-----------|
(2nd Verse end on this) PM------------------:|------------------------||---------------8--6--5--||------------------------| |----5----5--------------||------7----7------------||-5-----------5----------|
|------0~~(0)~--|---------||------0~~(0)~--|---------||-----10~(10)~--|---------||------9~~(9)~--|------2~-||-0-0--0~~(0)~--|------2~-||---------------|--0-0-0~-|
Chorus ~~~ |------8-----7-----7-----5-0--0-(0)-----7-----7--7----7----7-------------------||-/6-----6-5---5-6-----5---5b^6-(5)---5-----5----10b^-10b^-10b^-6-6-6-6--------||----7---------------7--------------7-----7-----------------------------5-5----||---------------------------------------------------------------------------6\-||------------------------------------------------------------------------------||------------------------------------------------------------------------------|
|---------------------------------------0--(0)--(0)--(0)--------||-0~~~----------------------------------0--(0)--(0)--(0)---/6---||--------------------------------------10-(10)-(10)-(10)------7-||-2b~3~2b--2b~3~2b--2b~3~2b~------------9--(9)--(9)--(9)--------||-----------------------------3/5-0-0---0--(0)--(0)--(0)--------||---------------------------------------------------------------|
~~~|------8-----7-----7-----5-0---(0)------7-----7--7----7----7--------------||-/6-----6-5---5-6-----5---5b6-(5)----5-----5----10b^-10b^-10b^-6-6-6-6---||----7---------------7--------------7-----7-----------------------------5-||-------------------------------------------------------------------------||-------------------------------------------------------------------------||-------------------------------------------------------------------------|
2nd Verse 2nd Chorus
Breakdown|---------------------|---------------------||---------------------|---------------------||---------------------|---------------------||---------------------|---------------------||-------3-------------|-------3-------------||-3-3-5---5-3-5-5-5-5-|-3-3-5---5-3-5-5-5-5-|
|---------------------|---------------------||---------------------|---------------------||---------------------|---------------------||---------------------|---------------------||-------3-------------|-------3-------------||-3-3-5---5-3-5-5-5-5-|-3-3-5---5-3-5-5-5-5-|
|-------------------|-------------------||-------------------|-------------------||-------------------|-------------------||-------------------|-------------------||-------------------|-------------------||-5-3-3-3-5-5-5-5-5-|-5-3-3-3-5-5-5-5-5-|
2/4|-------------------|-------------------|---------||-------------------|-------------------|---------||-------------------|-------------------|---------||-------------------|-------------------|---------||-------------------|-------------------|---------||-5-3-3-3-5-5-5-5-5-|-5-3-3-3-5-5-5-5-5-|-5-3-3-3-|
Bridge 4/4|-----------------------|------------------------||-10------10------10----|---10-------14----------||----11------11------11-|------11------------16--||-----------------------|------------------------||-------9-------9-------|-9-------9/----(14)-----||-----------------------|------------------------|
|---------------------|-----------------------------||-0---------6-----0---|-(0)-------6-----0--------6--||-0---------0-----0---|-(0)-------0-----0--------0--||-5---------5-----5---|-(5)-------5-----5--------5--||-6---------6-----6---|-(6)-------6-----6--------6--||---------------------|-----------------------------|
| ~~|-8p7p5---------------|-----------------------------||-------5-------------|-----------------------------||---------5-7-7/9-5h7-|-(7)-(7)/9---5h7---(7)/9\----||---------------------|-----------------------------||---------------------|-----------------------------||---------------------|-----------------------------|
|-----------------------|------------------------||-10------10------10----|---10-------14----------||----11------11------11-|------11------------16--||-----------------------|------------------------||-------9-------9-------|-9-------9/----(14)-----||-----------------------|------------------------|
|---------------------------|------------------||-0-------------6------0----|-(0)-6------0--6--||-0-------------0------0----|-(0)-0------0--0--||-5-------------5------5----|-(5)-5------5--5--||-6-------------6------6----|-(6)-6------6--6--||---------------------------|------------------|
|
| Gtr 2| ~|---------------------------|------------------||------------------------10-|--7----10-8-------||-------5h7p5-----5-/9------|------------------||-5h6h7-------7-------------|------------------||---------------------------|------------------||---------------------------|------------------|
|-----------------------|------------------------||-10------10------10----|---10-------14----------||----11------11------11-|------11------------16--||-----------------------|------------------------||-------9-------9-------|-9-------9/----(14)-----||-----------------------|------------------------|
|------------------------|------------------------------||--0------------6-----0--|-(0)----6------------0----6---||--0------------0-----0--|-(0)----0------------0----0---||--5------------5-----5--|-(5)----5------------5----5---||--6------------6-----6--|-(6)----6------------6----6---||------------------------|------------------------------|
|
| Gtr 2| ~ ~~ ~~|------------------------|--------------------14--------||------------------------|-12------------10-0-----------||-----------------9------|-----11---9-11---------12-----||----------10-9------10--|------------------------------||-------10---------------|------------------------------||-10h12------------------|------------------------------|
|-----------------------|------------------------||-10------10------10----|---10-------14----------||----11------11------11-|------11------------16--||-----------------------|------------------------||-------9-------9-------|-9-------9/----(14)-----||-----------------------|------------------------|
|-------------------|--------------------------||--0-----6-----0----|--(0)--6-----0----6-------||--0-----0-----0----|--(0)--0-----0----0-------||--5-----5-----5----|--(5)--5-----5----5-------||--6-----6-----6----|--(6)--6-----6----6-------||-------------------|--------------------------|
| ~~~~~~~~~|-------------------|------15----17------------||-12-14----------14-|-(14)----14----15---(15)--||-------13----15----|--------------------------||----------12-------|--------------------------||-------------------|--------------------------||-------------------|--------------------------|
2x|-------------------------------------|-------------------------------------||-10-10-10-10-10-10-10-10-10-10-10-10-|-10-10-10-10-10-10-14-14-14-12-12-12-||--x--x--x--x--x--x--x--x--x--x--x--x-|--x--x--x--x--x--x--x--x--x--x--x--x-||--x--x--x--x--x--x--x--x--x--x--x--x-|--x--x--x--x--x--x-11-11-11--9--9--9-||--9--9--9--9--9--9--9--9--9--9--9--9-|--9--9--9--9--9--9-------------------||-------------------------------------|-------------------------------------|
|-------------------------|----------------------||-6-6-6-6-6-6-6-6-6-6-6-6-|-6-6-6-6-6-6-6-6-6--8-||-x-x-x-x-x-x-x-x-x-x-x-x-|-x-x-x-x-x-x-x-x-x--x-||-x-x-x-x-x-x-x-x-x-x-x-x-|-x-x-x-x-x-x-x-x-x--x-| |-6-6-6-6-6-6-6-6-6-6-6-6-|-6-6-6-6-6-6-6-6-6--6-||-------------------------|----------------------|
Pre-Verse 4/4 3rd Verse 3rd Chorus
Interlude Random Noise/Fx >|-0--------|-(0)--------||-0--------|-(0)--------||-0--------|-(0)--------||-2--------|-(2)--------||-2--------|-(2)--------||-0--------|-(0)--------|
Extended Breakdown|---------------------|---------------------||---------------------|---------------------||---------------------|---------------------||---------------------|---------------------||-------3-------------|-------3-------------||-3-3-5---5-3-5-5-5-5-|-3-3-5---5-3-5-5-5-5-|
|---------------------|---------------------||---------------------|---------------------||---------------------|---------------------||---------------------|---------------------||-------3-------------|-------3-------------||-3-3-5---5-3-5-5-5-5-|-3-3-5---5-3-5-5-5-5-|
|-------------------|-------------------||-------------------|-------------------||-------------------|-------------------||-------------------|-------------------||-------------------|-------------------||-5-3-3-3-5-5-5-5-5-|-5-3-3-3-5-5-5-5-5-|
|--------------------|-------------------||--------------------|-------------------||--------------------|-------------------||--------------------|-------------------||--------------------|-------------------||-5-3-3-3-5-5-5-5-5--|-5-3-3-3-5-5-5-5-5-|
|----------------------|----------------------||----------------------|----------------------||----------------------|----------------------||----------------------|----------------------||-------3--------------|-------3--------------||-3-3-5---5-3-5-5-5-5\-|-3-3-5---5-3-5-5-5-5\-|
|----------------------|----------------------||----------------------|----------------------||----------------------|----------------------||----------------------|----------------------||-------3--------------|-------3--------------||-3-3-5---5-3-5-5-5-5\-|-3-3-5---5-3-5-5-5-5\-|
|-----------------------|-----------------------||-----------------------|-----------------------||-----------------------|-----------------------||-----------------------|-----------------------||-----------------------|-----------------------||-5-5-5-3-3-3-5-5-5-5-5-|-5-5-5-3-3-3-5-5-5-5-5-|
|-----------------------|-----------------------||-----------------------|-----------------------||-----------------------|-----------------------||-----------------------|-----------------------||-----------------------|-----------------------||-5-5-5-3-3-3-5-5-5-5-5-|-5-5-5-3-3-3-5-5-5-5-5-|
6x|------------------------|------------------------|------------------------||------------------------|------------------------|------------------------||------------------------|------------------------|------------------------||------------------------|------------------------|------------------------||------------------------|------------------------|------------------------||-5-5-5-3-3-3-5-5-5-5-5\-|-5-5-5-3-3-3-5-5-5-5-5\-|-5-5-5-3-3-3-5-5-5-5-5\-|
Solo (Play throughout solo)|---------------------|---------------------||---------------------|---------------------||---------------------|---------------------||---------------------|---------------------||-------3-------------|-------3-------------||-3-3-5---5-3-5-5-5-5-|-3-3-5---5-3-5-5-5-5-|
|
| Gtr 2 |------------------------------------||------------12---(12)b13========r12-||------------------------------------||------------------------------------||------------------------------------||------------------------------------|
~~~~~~|-----------------------------------------------------|----------------------||-(12)-----(12)b13=====12r====12--------(12)b13===12r-|-(12)-----------15b^17||-----------------------------------------------------|------14---12---------||-----------------------------------------------------|----------------------||-----------------------------------------------------|----------------------||-----------------------------------------------------|----------------------|
|--------------------------------12--13p12h||-(15)-(15)r-------------12---13-----------||------------------------------------------||------------------------------------------||------------------------------------------||------------------------------------------|
|-13p12---------------------------12---|-12b13r==12----------------------||-------13p12h13p12-----14h15----------|----------------15---13----------||--------------------------------------|---------------------------------||--------------------------------------|---------------------------------||--------------------------------------|---------------------------------||--------------------------------------|---------------------------------|
|-----------------------------------------|----------------------------------||-12h13p12--------------------------------|----------------------------15/17-||-----------------------------------------|------------------16---17---------||------------14/==15/17-----15\==14--(14)-|-(14)---15---17-------------------||-----------------------------------------|----------------------------------||-----------------------------------------|----------------------------------|
|------------------20p17-20p17-------20p17--||-(17)-------15/17-------------20p17--------||-------------------------------------------||-------------------------------------------||-------------------------------------------||-------------------------------------------|
|---------------------------------------||-20-17b18====(17)r==(17)---------------||---------------------------19----------||---------------------------------------||---------------------------------------||---------------------------------------|
|-20---20---20b22=====20r====20----17--17-|-(17)---------------------||-----------------------------------------|--------------------17-20-||-----------------------------------------|-------------19-----------||-----------------------------------------|--------------------------||-----------------------------------------|--------------------------||-----------------------------------------|--------------------------|
~~~~~~~~~~~|--17b18===17r====17---------------||---------------------20-----------||----------------------------------||------------------------------17--||----------------------------------||----------------------------------|
~~|-------------------------------------------|------------||---------17--------17b18=====17r====17--12-|-(12)-10----||------19------19---------------------------|------------||-(17)--------------------------------------|------------||-------------------------------------------|------------||-------------------------------------------|------------|
Outro 4/4|------------------------------------------------------||-(10)----------------------------------------(10)\----||------------------------------------------------------||------------------------------------------------------||------------------------------------------------------||------------------------------------------------------|
|
| Gtr 2|------------------------------------------------------||------------------------------------------------------||--14--14-14-14-14-14-14-14-14-14-14-14-14-14--14---14-||---x---x--x--x--x--x--x--x--x--x--x--x--x--x---x----x-||--12--12-12-12-12-12-12-12-12-12-12-12-12-12--12---12-||------------------------------------------------------|
|--------------------------------------------------||--------------------------------------------------||-14-14-14-14-14-14-14-14-14-14-14-14-12-12-12-12--||--x--x--x--x--x--x--x--x--x--x--x--x--x--x--x--x--||-12-12-12-12-12-12-12-12-12-12-12-12-10-10-10-10--||--------------------------------------------------|
|---------------------------------|---------------------------------||---------------------------------|---------------------------------||-8-8-8-8-8-8-8-8-8-8-8-8-8-8-8-8-|-8-8-8-8-8-8-8-8-8-8-8-8-8-8-8-8-||-x-x-x-x-x-x-x-x-x-x-x-x-x-x-x-x-|-x-x-x-x-x-x-x-x-x-x-x-x-x-x-x-x-||-6-6-6-6-6-6-6-6-6-6-6-6-6-6-6-6-|-6-6-6-6-6-6-6-6-6-6-6-6-6-6-6-6-||---------------------------------|---------------------------------|
|--------------------------------------------------||--------------------------------------------------||--14-14-14-14-14-14-14-14-14-14-14-14-14-14-14-14-||---x--x--x--x--x--x--x--x--x--x--x--x--x--x--x--x-||--12-12-12-12-12-12-12-12-12-12-12-12-12-12-12-12-||--------------------------------------------------|
|--------------------------------------------------||--------------------------------------------------||-14-14-14-14-14-14-14-14-14-14-14-14-12-12-12-12--||--x--x--x--x--x--x--x--x--x--x--x--x--x--x--x--x--||-12-12-12-12-12-12-12-12-12-12-12-12-10-10-10-10--||--------------------------------------------------|
|---------------------------------|---------------------------------||---------------------------------|---------------------------------||-8-8-8-8-8-8-8-8-8-8-8-8-8-8-8-8-|-8-8-8-8-8-8-8-8-8-8-8-8-8-8-8-8-||-x-x-x-x-x-x-x-x-x-x-x-x-x-x-x-x-|-x-x-x-x-x-x-x-x-x-x-x-x-x-x-x-x-||-6-6-6-6-6-6-6-6-6-6-6-6-6-6-6-6-|-6-6-6-6-6-6-6-6-6-6-6-6-6-6-6-6-||---------------------------------|---------------------------------|
|---------------------------------||---------------------------------||-8-8-8-9-9-8-8-8-8-8-8-8-8-8-8-8-||-x-x-x-x-x-x-x-x-x-x-x-x-x-x-x-x-||-6-6-6-7-7-6-6-6-6-6-6-6-6-6-6-6-||---------------------------------|
1. 2. 2/4|---------------------------------|-----------------||---------------------------------|-----------------||-8-8-8-8-8-8-8-8-8-8-8-8-8-8-8-8-|-8-8-8-8-8-8-8-8-||-x-x-x-x-x-x-x-x-x-x-x-x-x-x-x-x-|-x-x-x-x-x-x-x-x-||-6-6-6-6-6-6-6-6-6-6-6-6-6-6-6-6-|-6-6-6-6-6-6-6-6-||---------------------------------|-----------------|
4/4|------------------------|-----------------------||------------------------|-----------------------||------------------------|-----------------------||------------------------|-----------------------||------------------------|-----------------------||-5-5-5-3-3-3-5-5-5-5-5--|-5-5-5-3-3-3-5-5-5-5-5-|
|------------------------|-----------------------||------------------------|-----------------------||------------------------|-----------------------||------------------------|-----------------------||------------------------|-----------------------||-5-5-5-3-3-3-5-5-5-5-5--|-5-5-5-3-3-3-5-5-5-5-5-|
|-----------------------*||-----------------------*||-----------------------*||-----------------------*||-----------------------*||-5-5-5-3-3-3-5-5-5-5-5-*|
Please rate this tab:
x1.0