Marty Friedman - Its The Unreal Thing tab

Artist: Marty Friedman
Song:   Itīs the unreal thing
Album:  Music for speeding


The intro is just the chord F with a strange sound on the guitar then...

A 1st,2nd&3rd time B.1------------------------------------------|----------------------------|------------------------------------------|----------------------------|------------------------------------------|--5-5--5-5--5-5--5-5--6666--|------------------------5--5--------------|--3-3--3-3--3-3--3-3--4444--|-3-3-1-3-4-3---1-3-4-3--3--3---3-3-1-3-4-3|----------------------------|------------------------------------------|----------------------------|
4th. timeB.2----------------|----------------|----------------|-4-4--4-4--4-4--|----------------|----------------|
then the "verse" thereīs of lot of different noises but the guitar sounds like this
B 1st& 3rd time B.1-------------|----------------------------|-------------|----------------------------|-5-----------|--5-------------------------|---4--3--1---|-----4--3--1--3--5----------|-------------|--------------------6--5-6--|-------------|----------------------------|
2nd time 4th time nothing but a little scratch on the stringsB.2 B.3-------------|--x-x--|-------------|--x-x--|-------------|--x-x--|-5-----------|--x-x--|-3x8---------|--x-x--|-------------|--x-x--|
then part A again without ending 2 the second time then a solo the rythm is like this
C------------------------------------------------|------------------------------------------------|------------------------------------------5--3--|-5555--5555--5555-------5555--5555--5555--3--1--|x2-3333--3333--3333-------3333--3333--3333--------|------------------------------------------------|
D--------------------------|--------------------------|--------------------------|--------------------10-8--|x4-4-4---4-4---4-4----8--6--|-2-2---2-2---2-2----------|
A little "fill" before another solo
--------------------------------|--------------------------------|-----------------------5-6-8-5--|---------6---------6-8----------|-6--8--9-----6-8-9--------------|--------------------------------|
then a lot of solo the bass plays part A and on the last ending comes the guitar with like this, im not sure about this part its as little hard to hear the notes
---------------|---------------|---------------|-----------68--|-6-6-6-6-89----|---------------|
E-----------------------------|-----------------------------|-----------------------------|-5-6----5-6------5-6----5-6--|-3-4----3-4------3-4----3-4--|-----------------------------|
F------------------------------------|------------------------------------|------------------------------------|-5555---5555-----5555---5555--5555--|x10-3333---3333-----3333---3333--3333--|------------------------------------|
then part A followed by the theme from part B where the first part of it is played twice 1st and time and with the ending B.2 2nd and 4th time its like the normal part B and with ending a--8b- there is also rythm guitar on that part and it goes like this
------------------------------|------------------------------|------------------------------|-8---------5----8----8--------|-6----5----3----6----6----8b--|------3-----------------------|
Then part A one time with ending A.1 Then..
G G.1 1st and 2nd time---------|------------|---------|------------|---------|------------|-5-5-5-4-|-x-x--8-10--|-3-3-3-2-|-x-x--6-8---|---------|------------|
--------------------------------------------------------------|--------------------------------------------------------------|--------------------------------------------------------------|-------------------------------------------------5-3-5-5---5--|-2-2-2-2-3--2-2-2-2-3--2-2-2-2-3---3-3-1-3-4-3---3-1-3-3---3--|--------------------------------------------------------------|
Tabbed by Jonas Lykke Olesen from Denmark
Tap to rate this tab
 
# A B C D E F G H I J K L M N O P Q R S T U V W X Y Z