Mastifal – Amo De Las Horas tab

----------------------------------------------------------------------
	Artista :  MASTIFAL
	   Tema :  Amo de las Horas
	  Album :  CARNIVORA
            Web :  http://www.mastifal.com.ar
----------------------------------------------------------------------
		 _____________________________________
		|    Tab Hecho Por Esteban (BrOoD)    |
		|    the4horsemen[at]gmail[dot]com    |
		 -------------------------------------
	x2 = 2 veces se repite el pedacito marcado

NOTA:   Es el primer tab que hago en mi vida, la tablatura fue hecha 
	solo para fines educativos si se quiere, no representan 100% 
	exacto el tema original, pero puede ser tomado en cuenta como 
	una aproximacion a la verdadera forma de tocar este tema. 
	Tengo en cuenta 1 sola guitarra (de 6 cuerdas no de 7), 
	la otra saquenla ustedes. Si ya se, está lleno de errores seguro. 

NOTA2:  Los Palm Mute no los pongo porque me vuelvo chango sinó.

----------------------------------------------------------------------
 _______
| INTRO |
 -------

  |---------------------2 veces ----------------| 
x3 x1|---------------------------|----------------------||---------------------------|----------------------||---------------------------|--7--------5----------||---------------------------|--7--------5----------||--------------10---9---7---|--5-5555---3-3333-3~~-||---0---0-0-0-----0---0-----|----------------------|
x3 x1|--------------------------|----------------------||--------------------------|----------------------||--------------------------|--7--------5----------||----------------------5---|--7--------5----------||--------------2---0-------|--5-5555---3-3333-3~~-||---0---0-0-0----0---0-----|----------------------|
|---------------------1 vez mas ---------------|
x3 x2|---------------------------|----------------------||---------------------------|----------------------||---------------------------|--7--------5----------||---------------------------|--7--------5----------||--------------10---9---7---|--5-5555---3-3333-3~~-||---0---0-0-0-----0---0-----|----------------------|
|---------------------------|----------------------||---------------------------|----------------------||---------------------------|----------------------||---2--2--2--2-----2--------|----------------------||---2--2--2--2-----2--------|----------------------||---0--0--0--0-----0--------|--0-0-0-0-0-0-0-0-----|
x3|-----------------------------------||-----------------------------------||-----------------------------------||-----5/7-----8--------------2-2----||-----5/7-----8--------------2-2----||---0-3/5--0--6--0-0--000-0--0-0----|
x1|-----------------------------------||-----------------------------------||-----------------------------------||-----5/7-----8-------2-------------||-----5/7-----8-------2-------------||---0-3/5--0--6--0-0--0-------------|
Eres temor ....|-----------------------------------||-----------------------------------||-----------------------------------||-----5/7-----8--------------2-2----||-----5/7-----8--------------2-2----||---0-3/5--0--6--0-0--000-0--0-0----|
|----------------------------------------||----------------------------------------||--------------------------------7/8\7---||-----5/7-----8------------------7/8\7---||-----5/7-----8------------------5/6\5---||---0-3/5--0--6--0-0--000--0-0-0---------|
En la conciencia ....|-----------------------------------||-----------------------------------||-----------------------------------||-----5/7-----8--------------2-2----||-----5/7-----8--------------2-2----||---0-3/5--0--6--0-0--000-0--0-0----|
|---------------------------------------||---------------------------------------||---------------------------------------||-----5/7-----8-------------------------||-----5/7-----8-------------------------||---0-3/5--0--6--0-0--000-0-0-3p0--2p0--|
Encarnas miedo ....|-----------------------------------||-----------------------------------||-----------------------------------||-----5/7-----8--------------2-2----||-----5/7-----8--------------2-2----||---0-3/5--0--6--0-0--000-0--0-0----|
|----------------------------------------||----------------------------------------||--------------------------------7/8\7---||-----5/7-----8------------------7/8\7---||-----5/7-----8------------------5/6\5---||---0-3/5--0--6--0-0--000--0-0-0---------|
Con ....|-----------------------------------||-----------------------------------||-----------------------------------||-----5/7-----8--------------2-2----||-----5/7-----8--------------2-2----||---0-3/5--0--6--0-0--000-0--0-0----|
paciencia ....|----------------------------------------||----------------------------------------||----------------------------------------||-----5/7-----8--------------------------||-----5/7-----8--------------------------||---0-3/5--0--6--0-0--000-0-0-3p0--2p0---|
x3|-----------------------|------------------------||-----------------------|------------------------||-----------------------|------------------------||-----------------------|------------------------||-----------------------|------------------------||---0-0-0-0--3p0--2p0---|---2p0--0--2p0--0--3~---|
El tiempo se jacta de ti ....|-----------------------------------||-----------------------------------||-----------------------------------||-----5/7-----8--------------2-2----||-----5/7-----8--------------2-2----||---0-3/5--0--6--0-0--000-0--0-0----|
|----------------------------------------||----------------------------------------||--------------------------------7/8\7---||-----5/7-----8------------------7/8\7---||-----5/7-----8------------------5/6\5---||---0-3/5--0--6--0-0--000--0-0-0---------|
en cordura hostil ....|-----------------------------------||-----------------------------------||-----------------------------------||-----5/7-----8--------------2-2----||-----5/7-----8--------------2-2----||---0-3/5--0--6--0-0--000-0--0-0----|
|----------------------------------------||----------------------------------------||----------------------------------------||-----5/7-----8--------------------------||-----5/7-----8--------------------------||---0-3/5--0--6--0-0--000-0-0-3p0--2p0---|
x3|-----------------------|------------------------||-----------------------|------------------------||-----------------------|------------------------||-----------------------|------------------------||-----------------------|------------------------||---0-0-0-0--3p0--2p0---|---2p0--0--2p0--0--3~---|
siglos tras siglos, doctrinas las almas ....
x3 x3|-----------------------|-------------------------||-----------------------|-------------------------||-----------------------|-------------------------||-----------------------|-------------------------||-----------------------|-------------------------||---0-0-0-0--3p0--2p0---|---2p0--0--2p0--0--3p0---|
x4|-------------------------------------||-------------------------------------||-------------------------------------||-------------------------------------||----------3---2------6-5-3---5-4-2---||---0--000---0---0-00-------0---------|
NOTA: Toda esta parte hasta antes del estribillo tomenló con pinzas, ya que no es seguro, pero queda a ritmo y suena bien.
suspira la vida....|-----------------------------------------------||-----------------------------------------------||-----------------------------------------------||-------------------6---------------------------||-----------6---7-------7---6---7-6-4-----------||---0--000----0---0---0---0---0--------5--5555--|
en tu eterna agonía ....|---------------------------------------------||---------------------------------------------||---------------------------------------------||---------------------------------------------||---7---8---7---5-----------------------------||-----0---0---0---0--8--0--7--0--5---2--2222--|
deceso uniformado .... (aca sale fruta, queda bien igual)|---------------------------------------||---------------------------------------||---------------------------------------||-------------------5-------------------||---4---5---4---2-------4---2--2--0000--||-----0---0---0---0---0---0-------------|
en cuerpo humano ....|-------------------------------------------||-------------------------------------------||-------------------------------------------||------------9------------------------------||---9---10-------10---9---10-9-7---4--4444--||-----0----0---0----0---0-------------------|
arcaicos surcos ....|-----------------------------------------------||-----------------------------------------------||-----------------------------------------------||-------------------6---------------------------||-----------6---7-------7---6---7-6-4-----------||---0--000----0---0---0---0---0--------5--5555--|
esperan encontrarte ....|---------------------------------------------||---------------------------------------------||---------------------------------------------||---------------------------------------------||---7---8---7---5-----------------------------||-----0---0---0---0--8--0--7--0--5---2--2222--|
perpetuo rival .... (aca sale fruta, igual que antes)|----------------------------------------||----------------------------------------||----------------------------------------||-----------4----------------------------||---4---5-------5---4---5-4-2---2--2222--||-----0---0---0---0---0------------------|
contigo el final ....|------------------------------------------||------------------------------------------||------------------------------------------||------------9-----------------------------||---9---10-------10---9---10-9-7-----------||-----0----0---0----0---0----------7-7777--|
contigo el final ....|-----------------------------------||-----------------------------------||-----------------------------------||------------9----------10-9--------||---9---10-------10---7------10-7---||-----0----0---0----0---------------|
Estribillo: (el dedo índice al traste 7)
Muerte, amo de las horas ....|-------------------------------------------||-------------------------------------------||-------------------------------------------||-------------------------------------------||-----------10---9---7---------10---9---7---||---0--000-----0---0---0--000-----0---0-----|
........ (el 101010 son tres "10")|------------------------------------------------||------------------------------------------------||------------------------------------------------||--------------------------------------------7---||---------------7---9---10----------10---9-------||---10--101010----0---0-----8--888-----0---0-----|
Muerte, clamas defunción ....|-------------------------------------------||-------------------------------------------||-------------------------------------------||-------------------------------------------||-----------10---9---7---------10---9---7---||---0--000-----0---0---0--000-----0---0-----|
........|------------------------------------------------||------------------------------------------------||------------------------------------------------||--------------------------------------------7---||---------------7---9---10----------10---9-------||---10--101010----0---0-----8--888-----0---0-----|
Súbdito de tu juicio ....|-------------------------------------------||-------------------------------------------||-------------------------------------------||-------------------------------------------||-----------10---9---7---------10---9---7---||---0--000-----0---0---0--000-----0---0-----|
........|------------------------------------------------||------------------------------------------------||------------------------------------------------||--------------------------------------------7---||---------------7---9---10----------10---9-------||---10--101010----0---0-----8--888-----0---0-----|
Todo ser .... |-------------------------------------------||-------------------------------------------||-------------------------------------------||-------------------------------------------||-----------10---9---7---------10---9---7---||---0--000-----0---0---0--000-----0---0-----|
nacerá ....|------------------------------------------------||------------------------------------------------||------------------------------------------------||--------------------------------------------7---||---------------7---9---10----------10---9-------||---10--101010----0---0-----8--888-----0---0-----|
|------------||------------||------------||------------||---8--(8)---||---0--(0)---|
Lo que sigue son repeticiones de esto y de cosas anteriores, (salvo el mini solo y otras cositas), asi que la termino por aca nomás.
|--------------------------------------||--------------------------------------||--------------------------------------||--------------------------------------||----------7h8p7h10---------10p8p7h8---||---0-0-0------------0-0-0-------------|
|--------------------------------------||--------------------------------------||--------------------------------------||----------------5---------------------||----------7h8p5----------7h8p7--------||---0-0-0----------0-0-0--------10-----|
Espero les sirva, y la pasen bien tocando Mastifal PD: Quiero que salga el dvd !!!!!!!!!!! _____ | FIN | -----
Please rate this tab:
x1.0