Mastodon – The Sparrow tab

Mastodon: The sparrow

Tuning: DGCFAD


|-------------------------------------| |-----------8-7----------------8-7----||-----9---9-----9--------9---9-----9--||---9---9--------------9---9----------||-------------------------------------||-0------------------0----------------|
|-------------------------------------||------------7-----------------7------||------7---9-----7-------7---9-----7--||----9---------9-------9---------9----||--------5-----------------5----------||-7------------------7----------------| X2
|---------0-----------------0---------||-----------5-----------------5-------||-----7-------4h5-------7-------4h5---||---5---5-------------5---5-----------||-------------------------------------||-5-----------------5-----------------|
Bellow you play the build up part of the intro, wich you can hear at 0:20 in the song. You can clearly hear more distortion, and the drums opening the rest of the song.
|--------------------||---------5----------||-----------4--------||-------------5------||---5-7---------7----||-0-----0------------|
|--------------------||--------------5-----||----------------4---||---------5----------||---5-7--------------||-0-----0---0--------|
|---------0----------||--------------------||-----------7--------||-----9-------9------||---9---9-------9----||-7------------------|
|-------------0------||--------------------||---------7-----7----||-----9-----9--------||---9---9------------||-7------------------|
|---------0----------||-----------0---0----||--------------------||-------------5------||---5-7--------------||-0-----0------------|
|--------------------||--------------------||-------------4------||---------5-----5----||---5-7--------------||-0-----0---0--------|
|---------0----------||--------------------||-----------7--------||-----9-------9------||---9---9-------9----||-0------------------|
|--------------------||-----5-------7------||--------------------||---5---5---7---7----||---------5----------||-0------------------|
After this, you repeat the first part of the song again as i`ll show you bellow: 0:35
|-------------------------------------| |-----------8-7----------------8-7----||-----9---9-----9--------9---9-----9--||---9---9--------------9---9----------||-------------------------------------||-0------------------0----------------|
|-------------------------------------||------------7-----------------7------||------7---9-----7-------7---9-----7--||----9---------9-------9---------9----||--------5-----------------5----------||-7------------------7----------------| X2
|---------0-----------------0---------||-----------5-----------------5-------||-----7-------4h5-------7-------4h5---||---5---5-------------5---5-----------||-------------------------------------||-5-----------------5-----------------|
|--------------------||---------5----------||-----------4--------||-------------5------||---5-7---------7----||-0-----0------------|
|--------------------||---------5----------||-----------4--------||-------------5------||---5-7---------7----||-0-----0------------|
0:58
|---------0----------||--------------------||-----------7--------||-----9-------9------||---9---9-------9----||-7------------------|
|---------0----------||--------------------||-----------7--------||-----9-------9------||---9---9-------9----||-7------------------|
|--------------------||---------5----------||-----------4---4----||-------------5------||---5-7--------------||-0-----0------------|
|--------------------||---------5----------||-----------4--------||-------------5------||---5-7---------7----||-0-----0------------|
|----------0---------||------------0-------||--------------0-----||--------------------||---5-7----------7---||-0-----0------------|
|----------0---------||------------0-------||--------------0-----||--------------------||---5-7----------7---||-0-----0------------|
"Persue happiness with diligence"
|----------0-0-------||--------------------||-----5--------5-----||---7---7--------7---||--------------------||-5------------------|
|-------0------------||--------------------||-----5--------5-----||---7------------7---||--------------------||-5------------------|
After this you just repeat the same thing one more time from the last place i wrote in the tab. It`s basically the same. 2:12
PM------------------|--------------------X4 - Loosen up PM|--------------------| on bulid-up|--------------------||--------------------||--------------------||-0-0-0-0-0-0-0-0----|
|-------------------------------||-------------------------------||-------------------------------||-------------------------------||-------------------------------||-0---2-0-2b(3)-0-0--2-0-2b(3)-0|
|-------0h2----------||-----------0h3------||--------------------||----4---------------||-2------------------||--------------------| X4
2:48
|--------------------||--------------------||-9s11-9-7-7s9-------||--------------------||--------------------||--------------------|
This is it for the main base of the song. I promise to tab the solo later. Just need a brake. Please rate ,and don`t hesitate to ask me of anything relatet to the tab.
Please rate this tab:
x1.0