Mastodon – Mother Puncher tab

Band:  Mastodon
Album: Remission
Song:  Mother Puncher
Copyright (c)  (Relapse Records) (2002)

Transcribed By: Cameron Hustis
Email:          Wavejet@aol.com


Tuning AGCFAD

gtr 1 intro|----------------------------||----------------------------||----------------------------||---------------7h9-9-9-9-9--||----------------------------||--3p0-0-0-0-0---------------|
|----------------------------||----------------------------||----------------------------||---------------7h9-9-9-9-9--||----------------------------||--3p0-0-0-0-0---------------|
|----------------------------||----------------------------||----------------------------||---------------7h9-9-9-9-9--||----------------------------||--3p0-0-0-0-0---------------|
|--------------------||--------------------||--------------------||--------------------||--------------------||-6-3--3--3--3-1-1-1-|
riff 1gtr 1&2|----------------------------||----------------------------||----------------------------||---------------7h9-9-9-9-9--||----------------------------||--3p0-0-0-0-0---------------|
|----------------------------||----------------------------||---------------7h9-9-9-9-9--||---------------7h9-9-9-9-9--||----------------------------||--3p0-0-0-0-0---------------|
|------------------------------||-------------10h12-12-12-12-12||------------------------------||--------------7h9--9--9--9--9-||------------------------------||--3p0-0-0-0-0-----------------|
|--------------------||--------------------||--------------------||--------------------||--------------------||-6-3--3--3--3-1-1-1-|
riff 2 gtr 1&2|-------------------------------------||-----------------5-----6-------------||---------7-5-7-5---5-7---4-7-5-2-2-4-||-----------------2-----3-------------||---------5-3-5-3---3-5---2-5-3-0-0-2-||-0--1--0-----------------------------|
|----------------------------------||----------------------------------||---------7-------7-------7-9------||---------7-10-10-7-10-10-7-9-10---||-----------10-10---10-10-----10---||-0--3--0--------------------------|
|-------------------------------------||-------------------------------------||-------------------------------------||-----------------2-----3-------------||---------5-3-5-3---3-5---2-5-3-0-0-2-||-0--1--0-----------------------------|
|-------------------------------------------||-------------------------------------14-15-||---------7-------7-------6-7--11-12--13-14-||---------7-10-10-7-10-10-6-7--11-12--------||-----------10-10---10-10-------------------||-0--3--0-----------------------------------|
|-------------------------------------||-------------------------------------||-------------------------------------||-----------------2-----3-------------||---------5-3-5-3---3-5---2-5-3-0-0-2-||-0--1--0-----------------------------|
|----------------------------------||----------------------------------||---------7-------7-------7-9------||---------7-10-10-7-10-10-7-9-10---||-----------10-10---10-10-----10---||-0--3--0--------------------------|
|-------------------------------------||-------------------------------------||-------------------------------------||-----------------2-----3-------------||---------5-3-5-3---3-5---2-5-3-0-0-2-||-0--1--0-----------------------------|
|-----------------------------------||-----------------------------------||---------7-------7-------6-7--11-12||---------7-10-10-7-10-10-6-7--11-12||-----------10-10---10-10-----------||-0--3--0---------------------------|
|-------------------------------------||-----------------5-----6-------------||---------7-5-7-5---5-7---4-7-5-2-2-4-||-----------------2-----3-------------||---------5-3-5-3---3-5---2-5-3-0-0-2-||-0--1--0-----------------------------|
|----------------------------------||----------------------------------||---------7-------7-------7-9------||---------7-10-10-7-10-10-7-9-10---||-----------10-10---10-10-----10---||-0--3--0--------------------------|
|-------------------------------------||-------------------------------------||-------------------------------------||-----------------2-----3-------------||---------5-3-5-3---3-5---2-5-3-0-0-2-||-0--1--0-----------------------------|
|-------------------------------------------||-------------------------------------14-15-||---------7-------7-------6-7--11-12--13-14-||---------7-10-10-7-10-10-6-7--11-12--------||-----------10-10---10-10-------------------||-0--3--0-----------------------------------|
verseriff 3 gtr 1&2|-------------------------------||-------------------------------||-------------------------------||-4--------3--------4--------3--||-2--------1--------2--------1--||----0--3-----0--1-----0--3-----|
riff 32nd verse gtr 1&2|---------------------------------------||---------------------------------------||--4--------9--10-9--4------------------||---------------------------------------||--2--------7--8--7--2------------------||-----0--0-------------0--0--0--0--0--0-|
|----------------------------------||----------------------------------||--7-----7--------5--------4--5--4-||----------------------------------||--5-----5--------3--------2--3--2-||-----0-----0--0-----0--0----------|
riff 4 (during riff 3) gtr 3|------------------------------||-1212121212121212121212121212/||------------------------------||-9-9-9-9-9-9-9-9-9-9-9-9-9-9/-||------------------------------||------------------------------|
|--------------------------||-10101010/-8-8-8-8/-5-6-5-||--------------------------||-7-7-7-7/--5-5-5-5/-4-5-4-||--------------------------||--------------------------|
Please rate this tab:
x1.0