Mastodon - Trilobyte tab

Band: Mastodon
Album: Remission
Song:  Trilobyte
Copyright (c)  (Relapse Records) (2005)
Transcribed By: Cameron Hustis
Email:          Wavejet@aol.com



Intro

|----------------7-|-8-7--------------|---------0--------|---------0--------||--------------7---|-----7------------|-------6---6------|-------6---6------||------------9-----|-------9---------7|-----7-------7----|-----7-------7----||-----5-7-10-------|---------9----10--|---9-----------9--|---9--------------||---7--------------|------------7-----|-8----------------|-8-------------8\-||-0----------------|------------------|------------------|------------------|
|---------0-----3--|-----4---3---0----|---------0-----2--|-----3---2---0----||-------0---0------|-0-----0---0---0--|-------0---0------|-0-------------0--||-----3-------3----|---3--------------|---0-2-------2----|---2---2---2------||---5--------------|------------------|-1----------------|------------------||-7----------------|------------------|------------------|------------------||------------------|------------------|------------------|------------------|
(played during the 5th and 6th measures of the intro)|---7---------6----|-6/7-7/1010/1212/13\12-||-----5-----4------|-----------------------||-4-----4-5--------|-3/4-4/7--7/9--9/10\9--||------------------|-----------------------||------------------|-----------------------||------------------|-----------------------|
Verse
|----------------------||----------------------||----------------------||-9-9-9-10-10--7-7-----||-7-7-7-8--8---5-5-----||-7-7-7-8--8---5-5-0-0-|
2x|-0-----0----0-0-----||-8\----5----5-5-----||--------------------||--------------------||--------------------||-----0---0-0----0-0-|
|------------------------------||------------------------------||------------------------------||-9-9-9--14-14--101010-7-7-----||-7-7-7--12-12--8-8-8--5-5-----||-7-7-7--12-12--8-8-8--5-5-0-0-|
2x|-0-----0----0-0-----||-8\----5----5-5-----||--------------------||--------------------||--------------------||-----0---0-0----0-0-|
Bridge
2x|-----------0------||---------2---0----||-----3-4-------3--||---4--------------||------------------||-2----------------|
2x|-------0-0h2p0----||-----3---------3--||---4-------------4||------------------||------------------||-3----------------|
2x|---------------0-------||------------2-----0----||------3--4-----------3-||---4-------------------||-----------------------||-2---------------------|
| |
|--------------12-------||-----11-12-14----12-11-||--11-------------------||-----------------------||-----------------------||-----------------------|
2x|---------0---0h2p0-------||------3-------------3----||---4-------------------4-||-------------------------||-------------------------||-3-----------------------|
| |
|---------10-12h1412-10---||------12---------------12||---12--------------------||-------------------------||-------------------------||-------------------------|
1st Interlude
|-0--0--0--0-0---0---0-||-8--8--7--5---5---0---||----------------------||----------------------||--------------4---4---||------------3---2---0-|
|-0--0---0---0--0-8------8-||-8--8---10--12-12-----5---||--------------------5-----||--------------------------||--------------------------||--------------------------|
2nd Interlude
|--------------------||--------------------||--------------------||-9-10-10-10---------||------------2-------||-7/8--8--8----0-----|
|--------------------||--------------------||-----------2-0------||-----0---3----------||---2---3------------||-3------------------|
|--------------------||--------------------||--------------------||-9-10-10-10-13-13---||--------------------||-7/8--8--8--11-11---|
|--------------------||--------------------||-----0------------9-||---5---5-7-9-9/12---||-7------------------||--------------------|
Tap to rate this tab
 
# A B C D E F G H I J K L M N O P Q R S T U V W X Y Z