Mastodon - Hail To Fire tab

HAIL TO FIRE
MASTODON
LIFESBLOOD

Gtr I (A G C F A D) 
Gtr II (A G C F A D)

 h   - hammer-on
 p   - pull-off
 b   - bend
 pb  - pre-bend
 r   - bend release (if no number after the r, then release immediately)
 /\  - slide into or out of (from/to "nowhere")
 s   - legato slide
 S   - shift slide
 - natural harmonic
[n]  - artificial harmonic
n(n) - tapped harmonic
 ~   - vibrato
 tr  - trill
 T   - tap
 TP  - trem. picking
 PM  - palm muting
\n/  - tremolo bar dip; n = amount to dip
 \n  - tremolo bar down
 n/  - tremolo bar up
/n\  - tremolo bar inverted dip
 =   - hold bend; also acts as connecting device for hammers/pulls
 <> - volume swell (louder/softer)
 x   - on rhythm slash represents muted slash
 o   - on rhythm slash represents single note slash

Intro 7/8|-18-18-12-12-15-15-12-|-18-18-12-12-15-15-12-|-18-18-12-12-15-15-12-||--0--0--------0--0--0-|--0--0--------0--0--0-|--0--0--------0--0--0-||----------------------|----------------------|----------------------||----------------------|----------------------|----------------------||----------------------|----------------------|----------------------||----------------------|----------------------|----------------------|
|-18-18-12-12-15-15-12-|-18-18-12-12-15-15-12-|-18-18-12-12-15-15---|||--0--0--------0--0--0-|--0--0--------0--0--0-|--0--0--------0--0-0-|||----------------------|----------------------|---------------------|||----------------------|----------------------|---------------------|||----------------------|----------------------|---------------------|||----------------------|----------------------|---------------------||
Verse I 3x||-------------|------------|------------|--------------||||o------------|------------|------------|-------------o||||-----7--6----|----7--6----|----7--6----|----7--6------||||-----7--6----|----7--6----|----7--6----|----7--6------||||o----5--4----|----5--4----|----5--4----|----5--4-----o||||--6--------0h|=6--------0h|=6--------0h|=6--------0---||
Verse II 4/4||------------------|-----------------|-----------------|------------------|||o-----------------|-----------------|-----------------|------------------|||------------------|-----------------|-----------------|------------------|||------3---5-----3-|---3---3-5-3-2-0-|-----2---4-----2-|---2---2-4-2-0----|||o-2-2---2---2-2---|-2---2-----------|-1-1---1---1-1---|-1---1---------1--|||------------------|-----------------|-----------------|------------------|
|
||------------------|-----------------|-----------------|------------------|||o-----6---8-----6-|---6---6-8-6-5-3-|-----5---7-----5-|---5---5-7-5-3----|||--4-4---4---4-4---|-4---4-----------|-3-3---3---3-3---|-3---3---------3--|||------------------|-----------------|-----------------|------------------|||o-----------------|-----------------|-----------------|------------------|||------------------|-----------------|-----------------|------------------|
|-----------------|-----------------|-----------------|-------------------|||-----------------|-----------------|-----------------|------------------o|||-----------------|-----------------|-----------------|-------------------|||-----4-------0-2-|-----4-------0-2-|-----6---------4-|-----6---------4---|||-2-2---2-5-4-----|-2-2---2-5-4-----|-4-4---4-7-6-7---|-4-4---4-7-6-7----o|||-----------------|-----------------|-----------------|-------------------||
|
|-----------------|-----------------|-----------------|-------------------|||-----7-------3-5-|-----7-------3-5-|-----9-------5-7-|-----9-------5-7--o|||-4-4---4-7-6-----|-4-4---4-7-6-----|-6-6---6-9-8-----|-6-6---6-9-8-------|||-----------------|-----------------|-----------------|-------------------|||-----------------|-----------------|-----------------|------------------o|||-----------------|-----------------|-----------------|-------------------||
Interlude 7/8||--18-18-12-12-15-15---|-18-18-12-12-15-15---|||o--0--0--------0--0-0-|--0--0--------0--0-0-|||----------------------|---------------------|||----------------------|---------------------|||o---------------------|---------------------|||----------------------|---------------------|
|
||--17-17-12-12-15-15---|-18-18-12-12-15-15---|||o--0--0--------0--0-0-|--0--0--------0--0-0-|||----------------------|---------------------|||----------------------|---------------------|||o---------------------|---------------------|||----------------------|---------------------|
|-18-18-12-12-15-15---|-18-18-12-12-15-15----||--0--0--------0--0-0-|--0--0--------0--0--0-||---------------------|----------------------||---------------------|----------------------||---------------------|----------------------||---------------------|----------------------|
|
|-18-18-12-12-15-15---|-10-10----------------||--0--0--------0--0-0-|--------9--9-12-12-12-||---------------------|----------------------||---------------------|----------------------||---------------------|----------------------||---------------------|----------------------|
9/8|--------------------------|----------------------------||-----------------12-12-12-|-------------12-12-12-12-12-||-----------10-10----------|-------10-10----------------||--11---11-----------------|-11-11----------------------||--------------------------|----------------------------||--------------------------|----------------------------|
|
|-----------------12-12-12-|-------------12-12-12-12-12-||-(12)-(12)----------------|----------------------------||-----------10-10----------|-------10-10----------------||--11---11-----------------|-11-11----------------------||--------------------------|----------------------------||--------------------------|----------------------------|
7/8 9/8|----------------------|----------------------------||-------------12-12-12-|-------------12-12-12-12-12-||-------10-10----------|-------10-10----------------||-11-11----------------|-11-11----------------------||----------------------|----------------------------||----------------------|----------------------------|
|
|-------------12-12-12-|-------------12-12-12-12-12-||----------------------|----------------------------||-------10-10----------|-------10-10----------------||-11-11----------------|-11-11----------------------||----------------------|----------------------------||----------------------|----------------------------|
7/8 9/8|----------------------|----------------------------||-11-11-12-12----------|-11-11-12-12----------------||----------------------|----------------------------||-------------10-10-10-|-------------10-10-10-10-10-||----------------------|----------------------------||----------------------|----------------------------|
|
|-12-12-12-12----------|-12-12-12-12----------------||----------------------|----------------------------||----------------------|----------------------------||----------------------|----------------------------||-------------10-10-10-|-------------10-10-10-10-10-||----------------------|----------------------------|
7/8 9/8|----------------------|------------------------------|||-11-11-12-12----------|-11-11-12-12-----------------o|||----------------------|------------------------------|||-------------10-10-10-|-------------10-10-10--9--9---|||----------------------|-----------------------------o|||----------------------|------------------------------||
|
|-12-12-12-12----------|-12-12-12-12------------------|||----------------------|-----------------------------o|||----------------------|------------------------------|||----------------------|------------------------------|||-------------10-10-10-|-------------10-10-10-10-10--o|||----------------------|------------------------------||
Verse I Verse II
Outro 7/8|-19-19-12-12-15-15---|-18-18-12-12-15-15---||--0--0--------0--0-0-|--0--0--------0--0-0-||---------------------|---------------------||---------------------|---------------------||---------------------|---------------------||---------------------|---------------------|
|
|-18-18-12-12-15-15---|-18-18-12-12-15-15---||--0--0--------0--0-0-|--0--0--------0--0-0-||---------------------|---------------------||---------------------|---------------------||---------------------|---------------------||---------------------|---------------------|
|-18-18-12-12-15-15---|----------------------||--0--0--------0--0-0-|-15-15-----------0-0--||---------------------|-------13-13-16-16----||---------------------|----------------------||---------------------|----------------------||---------------------|----------------------|
|
|-18-18-12-12-15-15---|-18-18-12-12-15-15----||--0--0--------0--0-0-|--0--0--------0--0-0--||---------------------|----------------------||---------------------|----------------------||---------------------|----------------------||---------------------|----------------------|
|-18-18-12-12-15-15---|-18-18-12-12-15-15---||--0--0--------0--0-0-|--0--0--------0--0-0-||---------------------|---------------------||---------------------|---------------------||---------------------|---------------------||---------------------|---------------------|
|
|-18-18-12-12-15-15---|-18-18-12-12-15-15---||--0--0--------0--0-0-|--0--0--------0--0-0-||---------------------|---------------------||---------------------|---------------------||---------------------|---------------------||---------------------|---------------------|
|---------------------|---------------------|-12\----*||-15-15-----------0-0-|-15-15-----------0-0-|-12\----*||-------13-13-16-16---|-------13-13-16-16---|-12\----*||---------------------|---------------------|-14\----*||---------------------|---------------------|--------*||---------------------|---------------------|--------*|
|
|-18-18-12-12-15-15---|-18-18-12-12-15-15---|-12\----*||--0--0--------0--0-0-|--0--0--------0--0-0-|-12\----*||---------------------|---------------------|-12\----*||---------------------|---------------------|-14\----*||---------------------|---------------------|--------*||---------------------|---------------------|--------*|
Tap to rate this tab
 
# A B C D E F G H I J K L M N O P Q R S T U V W X Y Z