Mastodon - Trampled Under Hoof tab

Mastodon - Trampled Under Hoof



Tuning : DGCFAD

|---------------------------------------------| |---------------------------------------------| |-5---6---5---3-------------5---6---5---------| |-x---x---x---x-------------x---x---x---------| |-3---4---3---1-------------3---4---3---------| |---0---0---0----0-3-1-3-4----0---0---1-3-4---|
|---------------------------------------------| |---------------------------------------------| |-9---10---9---7------------9---10---9--------| |-x---x----x---x------------x---x----x--------| |-7---8----7---5------------7---8----7--------| |---0----0---0---0-3-1-3-4----0----0---1-3-4--|
Guitar 2 ^
|---------------------------------------------| |---------------------------------------------| |-4-5---4-5---4-5---4-5---5-6-6---------------| |-x-x---x-x---x-x---x-x---x-x-x---------------| |-2/3---2/3---2/3---2/3---3/4-4---------------| |-----0-----0-----0-----0---------------------|
|------------------------------------------------| |------------------------------------------------| |------------------------------------------------| |--------------5--------------5---------------5-----| |-22-2-2222-3---2222-2-222-3---22-2-2222-2-3-----| |-00-0-0000-----0000-0-000---3-00-0-0000-0---3-0-|
weird timing, guitar sound very muffled and chaotic!
|---------------------------------------------| |---------------------------------------------| |-4-5---4-5---4-5---4-5---5-6-6---------------| |-x-x---x-x---x-x---x-x---x-x-x---------------| |-2/3---2/3---2/3---2/3---3/4-4---------------| |-----0-----0-----0-----0---------------------|
|---------------------------------------------| |---------------------------------------------| |-5-------5-----------------------------------| |-x---4---x---4-------------------------------| |-3---x---3---x----3--------------------------| |---0-2-0---0-2-0----4-3-1--------------------|
"lifesblood!!!"
|---------------------------------------------| |---------------------------------------------| |-5-------5-----------------------------------| |-x---4---x-----------------------------------| |-3---x---3-----------4-3---------------------| |---0-2-0---4-3-1-3-4-------------------------|
|---------------------------------------------| |------0---4p0---7p0--4p0-7p0-4p0-------------| |--4h5---5-----5----------------------5-------| |---------------------------------------------| |---------------------------------------------| |---------------------------------------------|
let notes ring!
Tap to rate this tab
 
# A B C D E F G H I J K L M N O P Q R S T U V W X Y Z