Matches - Scratched Out tab

track 11 (scratched out)

tabbed by-  logan cantelli
artist-     the matches
tuning-     standard

NOTE: make sure to move the pickup switch to the bottom.

e-----B-----G-----D-----A-----E-----
intro when i type "and so on" that just means figure out the strumming pattern.
-|------------------------------------------------------|-|------------------------------------------------------|-|------8-8---------------4-4---------------------------|-|------8-8---------------4-4---------------------------|-|------6-6-and so on-----2-2---and so on---------------|-|--7-7-7-7-----------3-3-3-3---------------------------|
intro part 2
------9--------7---------5--5x--3-3-3------------------|----7---7----5---5-------3--3x--3-3-3------------------|--7--------5-------------4--4x--3-3-3------------------| x2-------------------------5--5x--5-5-5-and so on--------|-------------------------------------------------------|-------------------------------------------------------|
you can also play the first part of it with these, although the other way is a lot more simplified.
-----2-2-x-2-2-----2-2-2-2-2-2---|-----3-3-x-3-3-----0-0-0-0-0-0---|-----4-4-x-4-4-----4-4-4-4-4-4---|-----4-4-x-4-4-----4-4-4-4-4-4---|-2-2-2-2-x-2-2-----2-2-2-2-2-2---|---------------3-3-3-3-3-3-3-3---|
Verse Palm Mute
--3-3-3-3-0-0-0-0----------------|--3-3-3-3-2-2-2-2----------------|--0-0-0-0-2-2-2-2-8-8-8-8--------|--0-0-0-0-2-2-2-2-8-8-8-8--------| x3--2-2-2-2-0-0-0-0-6-6-6-6--------|--3-3-3-3---------7-7-7-7--------| G major A major B minor
or you can also play it:
-3-3-3-3-5-5-5-5-2-2-2-2-----------|-3-3-3-3-5-5-5-5-3-3-3-3-----------|-4-4-4-4-6-6-6-6-4-4-4-4-----------| x3-5-5-5-5-7-7-7-7-4-4-4-4-----------|-5-5-5-5-7-7-7-7-2-2-2-2-----------|-3-3-3-3-5-5-5-5-------------------| G major A major B minor
Palm Mute
--3-3-3-3-0-0-0-0---------------------------|--3-3-3-3-2-2-2-2---------------------------|--0-0-0-0-2-2-2-2-8-8-8-8-7-7-7-7-9-9-9-9---|--0-0-0-0-2-2-2-2-8-8-8-8-7-7-7-7-9-9-9-9---|--2-2-2-2-0-0-0-0-6-6-6-6-5-5-5-5-7-7-7-7---|--3-3-3-3---------7-7-7-7-------------------|
----------------------------|-12-12-12-12-11-11-11-11----|-12-12-12-12-11-11-11-11----|-10-10-10-10-9--9---9--9----|----------------------------|
or:
-3-3-3-3-5-5-5-5-2-2-2-2--------------------|-3-3-3-3-5-5-5-5-3-3-3-3-7-7-7-7-9-9-9-9----|-4-4-4-4-6-6-6-6-4-4-4-4-7-7-7-7-9-9-9-9----|-5-5-5-5-7-7-7-7-4-4-4-4-5-5-5-5-7-7-7-7----|-5-5-5-5-7-7-7-7-2-2-2-2--------------------|-3-3-3-3-5-5-5-5----------------------------|
----------------------------|-12-12-12-12-11-11-11-11----|-12-12-12-12-11-11-11-11----|-10-10-10-10-9--9---9--9----|----------------------------|----------------------------|
Chorus
---------3-3-3-3---------0-0-0-0--|---------3-3-3-3---------2-2-2-2--|-8-8-8-8-0-0-0-0-5-5-5-5-2-2-2-2--|-8-8-8-8-0-0-0-0-5-5-5-5-2-2-2-2--|-6-6-6-6-2-2-2-2-3-3-3-3-0-0-0-0--|-7-7-7-7-3-3-3-3---------x-x-x-x--|
or:
-2-2-2-2-3-3-3-3---------5-5-5-5--|-3-3-3-3-3-3-3-3---------5-5-5-5--|-4-4-4-4-4-4-4-4-5-5-5-5-6-6-6-6--|-4-4-4-4-5-5-5-5-5-5-5-5-7-7-7-7--|-2-2-2-2-5-5-5-5-3-3-3-3-7-7-7-7--|---------3-3-3-3---------5-5-5-5--|
there you go. watch this to figure out the strumming: http://www.youtube.com/watch?v=emFpvOemvgU or http://www.youtube.com/watch?v=PapOIOdIle8 have fun =]
Tap to rate this tab
 
# A B C D E F G H I J K L M N O P Q R S T U V W X Y Z