Matches - Chain Me Free tab

i tabbed the rythem guitar then the lead, if your good enough you can put them
together, this is 100% correct, there are zero mistakes

Rhythm guitar (shawn)

                                                                         
E||-------------------|----------------------|--------x-x-x-------------|B||--5----------------|--5--5----------------|--------x-x-x-------------|G||-------------------|--6--6------4--4------|--2--2--x-x-x-2-2--2------|D||-------------------|--6--6------4--4------|--2--2--x-x-x-2-2--2------|A||-------------------|--4--4------2--2------|--0--0--x-x-x-0-0--0------|E||-------------------|----------------------|--------x-x-x-------------|
----------------------|--------x-x---------------|-----------------------|--5--5----------------|--------x-x---------------|----9---10---9---7-----|--6--6------4--4------|--2--2--x-x-2--2--2---2---|----9---9----9---8-----|--6--6------4--4------|--2--2--x-x-2--2--2---2---|----9---9----9---9-----|--4--4------2--2------|--0--0--x-x-0--0--0---0---|-----------------------|----------------------|--------x-x---------------|-----------------------|
-----------------------|-----------------------|-----------------------|--5--5---7---9---7-----|----9---10---9---7-----|--5--5---7---9---7-----|--6--6---8---9---8-----|----9---9----9---8-----|--6--6---8---9---8-----|--7--7---9---9---9-----|----9---9----9---9-----|--7--7---9---9---9-----|-----------------------|-----------------------|-----------------------|-----------------------|-----------------------|-----------------------|
-------------------|------------------|------------------|-----------------|-------------------|------------------|------------------|-----------------|--9----------------|------------------|------------------|-----------------|--9----------------|------------------|------------------|-----------------|--7----------------|------------------|------------------|-----------------|-------------------|------------------|------------------|-----------------|
-----------------------|-----------------------|-----------------------|----9---10---9---7-----|--5--5---7---9---7-----|----9---10---9---7-----|----9---9----9---8-----|--6--6---8---9---8-----|----9---9----9---8-----|----9---9----9---9-----|--7--7---9---9---9-----|----9---9----9---9-----|-----------------------|-----------------------|-----------------------|-----------------------|-----------------------|-----------------------|
-----------------------|--------------------------|------------------------|--5--5---7---9---7-----|--------------------------|------------------------|--6--6---8---9---8-----|--6--6--6--6--4--4--4--4--|--9--9--9--9------------|--7--7---9---9---9-----|--6--6--6--6--4--4--4--4--|--9--9--9--9--6--6--6--6|-----------------------|--4--4--4--4--2--2--2--2--|--7--7--7--7--6--6--6--6|-----------------------|--------------------------|--------------4--4--4--4|
-----------------------|----------------------|--------x-x-x-------------|-----------------------|--5--5----------------|--------x-x-x-------------|-----------------------|--6--6------4--4------|--2--2--x-x-x-2-2--2------|--7--7--7--7--9--------|--6--6------4--4------|--2--2--x-x-x-2-2--2------|--7--7--7--7--9--------|--4--4------2--2------|--0--0--x-x-x-0-0--0------|--5--5--5--5--7--------|----------------------|--------x-x-x-------------|
----------------------|--------x-x---------------|----------------------|--5--5----------------|--------x-x---------------|--5--5----------------|--6--6------4--4------|--2--2--x-x-2--2--2---2---|--6--6------4--4------|--6--6------4--4------|--2--2--x-x-2--2--2---2---|--6--6------4--4------|--4--4------2--2------|--0--0--x-x-0--0--0---0---|--4--4------2--2------|----------------------|--------x-x---------------|----------------------|
--------x-x-x-------------|----------------------|--------x-x--------------|--------x-x-x-------------|--5--5----------------|--------x-x--------------|--2--2--x-x-x-2-2--2------|--6--6------4--4------|--2--2--x-x-2--2--2---2--|--2--2--x-x-x-2-2--2------|--6--6------4--4------|--2--2--x-x-2--2--2---2--|--0--0--x-x-x-0-0--0------|--4--4------2--2------|--0--0--x-x-0--0--0---0--|--------x-x-x-------------|----------------------|--------x-x--------------|
-----------------------|-----------------------|-----------------------|----9---10---9---7-----|--5--5---7---9---7-----|----9---10---9---7-----|----9---9----9---8-----|--6--6---8---9---8-----|----9---9----9---8-----|----9---9----9---9-----|--7--7---9---9---9-----|----9---9----9---9-----|-----------------------|-----------------------|-----------------------|-----------------------|-----------------------|-----------------------|
-----------------------|-------------------|------------------|--5--5---7---9---7-----|-------------------|------------------|--6--6---8---9---8-----|--9----------------|------------------|--7--7---9---9---9-----|--9----------------|------------------|-----------------------|--7----------------|------------------|-----------------------|-------------------|------------------|
------------------|------------------|-----------------------|------------------|------------------|----9---10---9---7-----|------------------|------------------|----9---9----9---8-----|------------------|------------------|----9---9----9---9-----|------------------|------------------|-----------------------|------------------|------------------|-----------------------|
-----------------------|-----------------------|-----------------------|--5--5---7---9---7-----|----9---10---9---7-----|--5--5---7---9---7-----|--6--6---8---9---8-----|----9---9----9---8-----|--6--6---8---9---8-----|--7--7---9---9---9-----|----9---9----9---9-----|--7--7---9---9---9-----|-----------------------|-----------------------|-----------------------|-----------------------|-----------------------|-----------------------|
--------------------------|--------------------------|---------------------|--------------------------|--------------------------|---------------------|--6--6--6--6--4--4--4--4--|--9--9--9--9--------------|---------------------|--6--6--6--6--4--4--4--4--|--9--9--9--9--6--6--6--6--|--7--7--7--7--9------|--4--4--4--4--2--2--2--2--|--7--7--7--7--6--6--6--6--|--7--7--7--7--9------|--------------------------|--------------4--4--4--4--|--5--5--5--5--7------|
----------------------|--------x-x-x-------------|----------------------|--5--5----------------|--------x-x-x-------------|--5--5----------------|--6--6------4--4------|--2--2--x-x-x-2-2--2------|--6--6------4--4------|--6--6------4--4------|--2--2--x-x-x-2-2--2------|--6--6------4--4------|--4--4------2--2------|--0--0--x-x-x-0-0--0------|--4--4------2--2------|----------------------|--------x-x-x-------------|----------------------|
--------x-x---------------|----------------------|--------x-x-x------------|--------x-x---------------|--5--5----------------|--------x-x-x------------|--2--2--x-x-2--2--2---2---|--6--6------4--4------|--2--2--x-x-x-2-2--2-----|--2--2--x-x-2--2--2---2---|--6--6------4--4------|--2--2--x-x-x-2-2--2-----|--0--0--x-x-0--0--0---0---|--4--4------2--2------|--0--0--x-x-x-0-0--0-----|--------x-x---------------|----------------------|--------x-x-x------------|
----------------------|--------x-x---------------|--5--5----------------|--------x-x---------------|--6--6------4--4------|--2--2--x-x-2--2--2---2---|--6--6------4--4------|--2--2--x-x-2--2--2---2---|--4--4------2--2------|--0--0--x-x-0--0--0---0---|----------------------|--------x-x---------------|
------------------------------|------------------------------|------------------------------|------------------------------|--9--9-9-8--8-8-6--6-6-4--4-4-|--2--2-2-2--2-2-2-4-4--4--4-4-|--9--9-9-9--9-9-6--6-6-4--4-4-|--2--2-2-2--2-2-2-4-4--4--4-4-|--7--7-7-6--6-6-4--4-4-2--2-2-|--0--0-0-0--0-0-0-2-2--2--2-2-|------------------------------|------------------------------|
------------------------------|------------------------------|------------------------------|------------------------------|--9--9-9-8--8-8-6--6-6-4--4-4-|--2--2-2-2--2-2-2-4-4--4--4-4-|--9--9-9-9--9-9-6--6-6-4--4-4-|--2--2-2-2--2-2-2-4-4--4--4-4-|--7--7-7-6--6-6-4--4-4-2--2-2-|--0--0-0-0--0-0-0-2-2--2--2-2-|------------------------------|------------------------------|
----------------------|------------------x-x-x-x-|----------------------|------------------x-x-x-x-|--6--6----------------|------------------x-x-x-x-|--6--6------6--6------|--7--7------9--9--x-x-x-x-|--4--4------6--6------|--7--7------9--9--x-x-x-x-|------------4--4------|--5--5------7--7--x-x-x-x-|
--------x-x-x-x-------x-x-x-x-|--------x-x-x-x-----------|--------x-x-x-x-------x-x-x-x-|--------x-x-x-x-----------|--6--6--x-x-x-x-------x-x-x-x-|--------x-x-x-x-9---------|--6--6--x-x-x-x-6--6--x-x-x-x-|--7--7--x-x-x-x-9----9----|--4--4--x-x-x-x-6--6--x-x-x-x-|--7--7--x-x-x-x-7----9----|--------x-x-x-x-4--4--x-x-x-x-|--5--5--x-x-x-x------7----|
--------x-x-x-x-------x-x-x-x-|--------x-x-x-x-------x-x-x-x-|--------x-x-x-x-------x-x-x-x-|--------x-x-x-x-------x-x-x-x-|--6--6--x-x-x-x-------x-x-x-x-|--------x-x-x-x-------x-x-x-x-|--6--6--x-x-x-x-6--6--x-x-x-x-|--7--7--x-x-x-x-9--9--x-x-x-x-|--4--4--x-x-x-x-6--6--x-x-x-x-|--7--7--x-x-x-x-9--9--x-x-x-x-|--------x-x-x-x-4--4--x-x-x-x-|--5--5--x-x-x-x-7--7--x-x-x-x-|
--------x-x-x-x-------x-x-x-x-|----------------------|--------x-x-x-x-------x-x-x-x-|----------------------|--6--6--x-x-x-x-------x-x-x-x-|----------------------|--6--6--x-x-x-x-6--6--x-x-x-x-|--7--7------9--9------|--4--4--x-x-x-x-6--6--x-x-x-x-|--7--7------9--9------|--------x-x-x-x-4--4--x-x-x-x-|--5--5------7--7------|
---------------------------|--------------------------|---------------------------|--------------------------|---------------------------|--------------------------|--11----11----11-9-9--9----|--7----7----7-9-9--9--9-9-|--11----11----11-9-9--9----|--7----7----7-9-9--9--9-9-|--9-----9-----9--7-7--7----|--5----5----5-7-7--7--7-7-|
---------------------------|--------------------------|---------------------------|--------------------------|---------------------------|--------------------------|--11----11----11-9-9--9----|--7----7----7-9-9--9--9-9-|--11----11----11-9-9--9----|--7----7----7-9-9--9--9-9-|--9-----9-----9--7-7--7----|--5----5----5-7-7--7--7-7-|
---------------------------|--------------------------|---------------------------|--------------------------|---------------------------|--------------------------|--11----11----11-9-9--9----|--7----7----7-9-9--9--9-9-|--11----11----11-9-9--9----|--7----7----7-9-9--9--9-9-|--9-----9-----9--7-7--7----|--5----5----5-7-7--7--7-7-|
---------------------------|----------------------------------|---------------------------|----------------------------------|---------------------------|----------------------------------|--11----11----11-9-9--9----|--7-7-7-7-7-7-7-7-7-7-7-7-7-7-7-7-|--11----11----11-9-9--9----|--7-7-7-7-7-7-7-7-7-7-7-7-7-7-7-7-|--9-----9-----9--7-7--7----|--5-5-5-5-5-5-5-5-5-5-5-5-5-5-5-5-|
------------------------------|------------------------------|------------------------------|------------------------------|--9--9-9-8--8-8-6--6-6-4--4-4-|--2--2-2-2--2-2-2-4-4--4--4-4-|--9--9-9-9--9-9-6--6-6-4--4-4-|--2--2-2-2--2-2-2-4-4--4--4-4-|--7--7-7-6--6-6-4--4-4-2--2-2-|--0--0-0-0--0-0-0-2-2--2--2-2-|------------------------------|------------------------------|
------------------------------|------------------------------|------------------------------|------------------------------|--9--9-9-8--8-8-6--6-6-4--4-4-|--2--2-2-2--2-2-2-4-4--4--4-4-|--9--9-9-9--9-9-6--6-6-4--4-4-|--2--2-2-2--2-2-2-4-4--4--4-4-|--7--7-7-6--6-6-4--4-4-2--2-2-|--0--0-0-0--0-0-0-2-2--2--2-2-|------------------------------|------------------------------|
------------------------------|----------------------------|------------------------------|----------------------------|--9--9-9-8--8-8-6--6-6-4--4-4-|--2--2-2-2--2-2-2-4-4--4----|--9--9-9-9--9-9-6--6-6-4--4-4-|--2--2-2-2--2-2-2-4-4--4----|--7--7-7-6--6-6-4--4-4-2--2-2-|--0--0-0-0--0-0-0-2-2--2----|------------------------------|----------------------------|
------------------------------|------------------------|--0----------------|------------------------------|------------------------|--0----------------|--9--9-9-8--8-8-6--6-6-4--4-4-|--2----2----2-4-4--4----|--1----------------|--9--9-9-9--9-9-6--6-6-4--4-4-|--2----2----2-4-4--4----|--2----------------|--7--7-7-6--6-6-4--4-4-2--2-2-|--0----0----0-2-2--2----|--2----------------|------------------------------|------------------------|--0----------------|
------------------||------------------||------------------||------------------||------------------||------------------||
Lead guitar (jon)
E||------------------|----------------------|------------------------|B||------------------|----------------------|------------------------|G||------------------|--6--6------4--4------|--2--2-----2-2--2---4---|D||------------------|--6--6------4--4------|--2--2-----2-2--2-------|A||------------------|--4--4------2--2------|--0--0-----0-0--0---2---|E||------------------|----------------------|------------------------|
------------------------|-------------------------|------------------------|------------------------|-------------------------|------------------------|--6--6----6--8--8----8--|--9--9----9--9--9---11---|----13---14---13---11---|------------------------|-------------------------|------------------------|--4--4----4--6--6----6--|--7--7----7--7--7---9----|----11---12---11---9----|-------------7--7----7--|--5--5----5--5--5---7----|------------------------|
---------------------------|---------------------------|---------------------------|---------------------------|--9--9---11---13---11------|----------14---13---11-----|---------------------------|---------------------------|--7--7---9----11---9-------|--7/-11---12---11---9------|------------------------7--|---------------------------|
--------------------------|-------------------|-------------------------|--------------------------|-------------------|-------------------------|--9--9---11---13---11-----|--9----------------|-------------------------|--------------------------|-------------------|-------------------------|--7--7---9----11---9------|--7----------------|--0--0----0-0-2--2----2/-|--------------------------|-------------------|-------------------------|
-------------------|-------------------------|---------------------------|-------------------|-------------------------|---------------------------|-------------------|-------------------------|----------14---13---11-----|-------------------|-------------------------|---------------------------|--7----------------|--0--0----0-0-2--2----2/-|--7/-11---12---11---9------|-------------------|-------------------------|---------------------------|
--------------------------|---------------------------|--------------------------|---------------------------|--9--9---11---13---11-----|----------14---13---11-----|--------------------------|---------------------------|--7--7---9----11---9------|--7/-11---12---11---9------|--------------------------|---------------------------|
--------------------------|--------------------|--------------------|--------------------------|--------------------|--------------------|--9--9---11---13---11-----|--9--------8--------|--------------------|--------------------------|--------------------|--9--------6--------|--7--7---9----11---9------|--7--------6--------|--------------------|--------------------------|--------------------|--7--------4--------|
--------------------|----------------------|------------------------|--------------------|----------------------|------------------------|--------------------|--6--6------4--4------|--2--2-----2-2--2---4---|--7--------9--------|--6--6------4--4------|--2--2-----2-2--2-------|--------------------|--4--4------2--2------|--0--0-----0-0--0---2---|--5--------7--------|----------------------|------------------------|
------------------------|-------------------------|-----------------------|------------------------|-------------------------|-----------------------|--6--6----6--8--8----8--|--9--9----9--9--9---11---|--9--9----9--8--8------|------------------------|-------------------------|-----------------------|--4--4----4--6--6----6--|--7--7----7--7--7---9----|--7--7----7--6--6------|-------------7--7----7--|--5--5----5--5--5---7----|--9--9----9--7--7------|
------------------------|----------------------------------|------------------------|----------------------------------|--6--6-----6-6--6---4---|--6-6-6-6-6-6-6-6-8-8-8-8-8-8-8-8-|------------------------|----------------------------------|--4--4-----4-4--4---2---|--4-4-4-4-4-4-4-4-6-6-6-6-6-6-6-6-|--5--5-----5-5--5-------|------------------7-7-7-7-7-7-7-7-|
-------------------------|--------------------------|-------------------------|--------------------------|--9--9----9--9--9---11---|----13---14---13---11-----|-------------------------|--------------------------|--7--7----7--7--7---9----|----11---12---11---9------|--5--5----5--5--5---7----|--------------------------|
---------------------------|---------------------------|---------------------------|---------------------------|--9--9---11---13---11------|----------14---13---11-----|---------------------------|---------------------------|--7--7---9----11---9-------|--7/-11---12---11---9------|------------------------7--|---------------------------|
--------------------------|-------------------|-------------------------|--------------------------|-------------------|-------------------------|--9--9---11---13---11-----|--9----------------|-------------------------|--------------------------|-------------------|-------------------------|--7--7---9----11---9------|--7----------------|--0--0----0-0-2--2----2/-|--------------------------|-------------------|-------------------------|
-------------------|-------------------------|---------------------------|-------------------|-------------------------|---------------------------|-------------------|-------------------------|----------14---13---11-----|-------------------|-------------------------|---------------------------|--7----------------|--0--0----0-0-2--2----2/-|--7/-11---12---11---9------|-------------------|-------------------------|---------------------------|
--------------------------|---------------------------|--------------------------|---------------------------|--9--9---11---13---11-----|----------14---13---11-----|--------------------------|---------------------------|--7--7---9----11---9------|--7/-11---12---11---9------|--------------------------|---------------------------|
--------------------------|--------------------|--------------------|--------------------------|--------------------|--------------------|--9--9---11---13---11-----|--9--------8--------|--------------------|--------------------------|--------------------|--9--------6--------|--7--7---9----11---9------|--7--------6--------|--------------------|--------------------------|--------------------|--7--------4--------|
--------------------|----------------------|------------------------|--------------------|----------------------|------------------------|--------------------|--6--6------4--4------|--2--2-----2-2--2---4---|--7--------9--------|--6--6------4--4------|--2--2-----2-2--2-------|--------------------|--4--4------2--2------|--0--0-----0-0--0---2---|--5--------7--------|----------------------|------------------------|
------------------------|-------------------------|-----------------------|------------------------|-------------------------|-----------------------|--6--6----6--8--8----8--|--9--9----9--9--9---11---|--9--9----9--8--8------|------------------------|-------------------------|-----------------------|--4--4----4--6--6----6--|--7--7----7--7--7---9----|--7--7----7--6--6------|-------------7--7----7--|--5--5----5--5--5---7----|--9--9----9--7--7------|
------------------------|------------------------------------------|------------------------|------------------------------------------|--6--6-----6-6--6---8---|--9-9-9-9-9-9-9-9-11-11-11-11-11-11-11-11-|------------------------|------------------------------------------|--4--4-----4-4--4---6---|--7-7-7-7-7-7-7-7-9--9--9--9--9--9--9--9--|--5--5-----5-5--5-------|------------------------------------------|
--------------------------|----------------------------------|--------------------------|----------------------------------|--13------14--13----11----|--9-9-9-9-9-9-9-9-9-9-9-9-9-9-9-9-|--------------------------|----------------------------------|--11------12--11----9-----|--7-7-7-7-7-7-7-7-7-7-7-7-7-7-7-7-|--------------------------|----------------------------------|
----------------------------------|----------------------------------|--9-9-9-9-9-9-9-9-9-8-8-8-8-9-9-9-|----------------------------------|--7-7-7-7-7-7-7-7-7-6-6-6-6-7-7-7-|----------------------------------|
-------------------------------------------------|-------------------------------------------------|--9-13-13-13-13-13-13-13-13-13-13-13-13-13-13-13-|-------------------------------------------------|--7-11-11-11-11-11-11-11-11-11-11-11-11-11-11-11-|-------------------------------------------------|
-------------------------------------------|----------------------|-------------------------------------------|----------------------|--13-14-14-14-14-14-14-14-14-8-8-8-8-8-8-8-|--6--6----------------|-------------------------------------------|--6--6------6--6------|--11-12-12-12-12-12-12-12-12-6-6-6-6-6-6-6-|--4--4------6--6------|-------------------------------------------|------------4--4------|
------------------------|-------------------------|------------------------|------------------------|----------9--------------|------------------------|-----------------11r--9-|----------9--------------|------------------------|-7--7------9--9---------|--11--11-----------11----|------9-----------------|-7--7------9--9---------|-------------------------|-----------9---7-9-7----|-5--5------7--7---------|-------------------------|---------------------9-7|
--------------------------|--------9-------------14r12-----|---------9~---------12----|--------12~-----------------14--|---------9~---8--8--11~---|--9--9--------11--11------------|--------------------------|--------------------------------|--------------6--6--------|--7--7--------9---9-------------|--7h9-9-------------------|--------------------------------|
---------------------14r12-------|--12--12---------------------|----------9~---------------14-12-|--14--14---------------------|----------9~---8--8--------------|--------------11--11--11r--9-|--11--11-------------------------|-----------------------------|---------------6--6--------------|--------------9---9----------|--9---9--------------------------|-----------------------------|
----------------------------|------------------------|------9-----10--------12r---|----9-------------------|------9-----11--------------|-----------------9--11--|--11-----9------9--9--------|-------------11---------|----------------------------|------------------------|----------------------------|------------------------|
----------------------------------|----9----11----12---------|-------------9-----------9----12--|--------------------------|--9-------------------------9-----|--9----9-----9------------|-----11-9-11-----11-9-11----------|--------------------------|----------------------------------|--------------------------|----------------------------------|--------------------------|
----12-12-12-12---11---9-------|------------------------------|---------------------------12--|--12---12r-------12-----------|-------------------------------|------------9-------12-9------|-------------------------------|------------------------------|-------------------------------|-------------------------10---|-------------------------------|------------------------------|
------------------12--------------|----14---------------12-----------|-------12---------------12--------|----------14-11------------14-----|----------------------------------|----------------------------------|
--------------------------12-12-12-12-15-15-15-15-|--------------12-12-12-12-12-12-12-12-12-12-12-12-|--12-12-12-12-12-12-12-12-12-12-12-12-12-12-12-12-|--14-14-14-14-14-14-14-14-14-14-14-14-14-14-14-14-|--------------------------------------------------|--------------------------------------------------|
--12-12-12-12-12-12-12-12-12-12-12-12-12-12-12-12-|--------------------------------------------------|--9--9--9--9--9--9--9--9--9--9--9--9--9--9--9--9--|--------------------------------------------------|--------------------------------------------------|--------------------------------------------------|
----------------------------------|----------------------------------|--9-9-9-9-9-9-9-9-9-8-8-8-8-9-9-9-|----------------------------------|--7-7-7-7-7-7-7-7-7-6-6-6-6-7-7-7-|----------------------------------|
-------------------------------------------------|-------------------------------------------------|--9-13-13-13-13-13-13-13-13-13-13-13-13-13-13-13-|-------------------------------------------------|--7-11-11-11-11-11-11-11-11-11-11-11-11-11-11-11-|-------------------------------------------------|
-------------------------------------------|-------------------------------|-------------------------------------------|-------------------------------|13-14-14-14-14-14-14-14-14-8-8-8-8-8-8-8-|--9-9-9-9-9-9-9-9-9-9-9-9-9-9-9-9|-------------------------------------------|-------------------------------|11-12-12-12-12-12-12-12-12-6-6-6-6-6-6-6-|--7-7-7-7-7-7-7-7-7-7-7-7-7-7-7-7|-------------------------------------------|-------------------------------|
-----------------------------------|------------------------------|-----------------------------------|------------------------------|--9-9-9-9-9-9-9-9-9-11-11-11-11----|--9--9-9-8--8-8-6--6-6-4--4-4-|-----------------------------------|--9--9-9-9--9-9-6--6-6-4--4-4-|--7-7-7-7-7-7-7-7-7-9--9--9--9-----|--7--7-7-6--6-6-4--4-4-2--2-2-|-----------------------------------|------------------------------|
------------------------|-------------------|------------------||------------------------|-------------------|------------------||--2----2----2-4-4--4----|-------------------|------------------||--2----2----2-4-4--4----|--2----------------|------------------||--0----0----0-2-2--2----|--2----------------|------------------||------------------------|--0----------------|------------------||
Tap to rate this tab
 
# A B C D E F G H I J K L M N O P Q R S T U V W X Y Z