Matches - Dog Eared Page tab

This is the rythm guitar for this song

Normal tuning

E||--------------------------|--------------------------|B||--3--3--3--3--3--3--3--3--|--3--3--3--3--3--3--3--3--|G||--4--4--4--4--4--4--4--4--|--4--4--4--4--4--4--4--4--|D||--4--4--4--4--4--4--4--4--|--4--4--4--4--4--4--4--4--|A||--2--2--2--2--2--2--2--2--|--2--2--2--2--2--2--2--2--|E||--------------------------|--------------------------|
--------------------------|-------------------|-------------------|--------------------------|-------------------|-------------------|--------------------------|-------------------|-------------------|--5--5--5--5--5--5--5--5--|--5----------------|----------------4--|--5--5--5--5--5--5--5--5--|--5----------------|----------------4--|--3--3--3--3--3--3--3--3--|--3----------------|----------------2--|
------------------------|-----------------------|-----------------------|------------------------|-----------------------|-----------------------|---------------------2--|--4----4----4----4-----|-----------------------|--5----5----5--4--5--2--|--4----4----4----4--4--|--5----5----5----5--5--|--5----5----5--4--5--0--|--2----2----2----2--4--|--5----5----5----5--5--|--3----3----3--2--3-----|--------------------2--|--3----3----3----3--3--|
----------------------|-----------------------|------------------------|----------------------|-----------------------|------------------------|------4----4----4-----|--------------------2--|--4----4----4--2--4-----|------4----4----4--4--|--5----5----5----5--2--|--4----4----4--2--4--4--|------2----2----2--4--|--5----5----5----5--0--|--2----2----2--0--2--4--|-------------------2--|--3----3----3----3-----|---------------------2--|
-----------------------|------------------------|------------------------|-----------------------|------------------------|------------------------|--------------------2--|--4----4----4--2--4-----|---------------------2--|--5----5----5----5--2--|--4----4----4--2--4--4--|--5----5----5--4--5--2--|--5----5----5----5--0--|--2----2----2--0--2--4--|--5----5----5--4--5--0--|--3----3----3----3-----|---------------------2--|--3----3----3--2--3-----|
-----------------------|-----------------------|-----------------------|-----------------------|-----------------------|-----------------------|--4----4----4----------|--------------------2--|--4----4----4----4-----|--4----4----4----4--5--|--5----5----5----5--2--|--4----4----4----4--4--|--2----2----2----4--5--|--5----5----5----5--0--|--2----2----2----2--4--|-----------------2--3--|--3----3----3----3-----|--------------------2--|
-----------------------|-----------------------|-----------------------|-----------------------|-----------------------|-----------------------|-----------------------|--7--7--7--7--7--------|-----------------------|--5----5----5----5--5--|--7--7--7--7--7--------|--5--5--5--5--5--------|--5----5----5----5--5--|--5--5--5--5--5--------|--5--5--5--5--5--------|--3----3----3----3--3--|-----------------------|--3--3--3--3--3--------|
-----------------------|-----------------------|-----------------------|-----------------------|-----------------------|-----------------------|--7--7--7--7--7--------|-----------------------|--7--7--7--7--7--------|--7--7--7--7--7--------|--5--5--5--5--5--------|--7--7--7--7--7--------|--5--5--5--5--5--------|--5--5--5--5--5--------|--5--5--5--5--5--------|-----------------------|--3--3--3--3--3--------|-----------------------|
-----------------------|--------------------------|--------------------------|-----------------------|--------------------------|--------------------------|-----------------------|--------------------------|--------------6--6--6--6--|--5--5----4--5----5----|--7--7--7--7--7--7--7--7--|--7--7--7--7--7--7--7--7--|--5--5----4--5----5----|--7--7--7--7--7--7--7--7--|--7--7--7--7--7--7--7--7--|--3--3----2--3----3----|--5--5--5--5--5--5--5--5--|--5--5--5--5--5--5--5--5--|
--------------------------|--------------5--5--5--5--|--------------5--5--5--5--|--5--5--5--5--5--5--5--5--|--6--6--6--6--6--6--6--6--|--6--6--6--6--6--6--6--6--|--7--7--7--7--7--7--7--7--|--7--7--7--7--7--7--7--7--|--7--7--7--7--7--7--7--7--|--7--7--7--7--7--7--7--7--|--5--5--5--5--5--5--5--5--|--5--5--5--5--5--5--5--5--|
--------------------------|--------------------------|----------------------|--------------------------|--------------------------|----------------------|--------------------------|--------------------------|----------------------|--7--7--7--7--7--7--7--7--|--7--7--7--7--7--7--7--7--|--5----5------5----5--|--------------------------|--------------------------|--5----5------5----5--|--------------------------|--------------------------|--3----3------3----3--|
-----------------------|--------------------------|--------------------------|-----------------------|--------------------------|--------------------------|-----------------------|--------------------------|--------------------------|----5--5----5--5--5----|--7--7--7--7--7--7--7--7--|--7--7--7--7--7--7--7--7--|----5--5----5--5--5----|--------------------------|--------------------------|----3--3----3--3--3----|--------------------------|--------------------------|
----------------------|-----------------------|------------------------|----------------------|-----------------------|------------------------|----------------------|-----------------------|--7----7----7--7--7--6--|--5----5------5----5--|----5--5----5--5--5----|--7----7----7--7--7--7--|--5----5------5----5--|----5--5----5--5--5----|--5----5----5--5--5--4--|--3----3------3----3--|----3--3----3--3--3----|------------------------|
--------------------------|----------------------|-------------------------|--------------------------|----------------------|-------------------------|--6--6--6--6--6--6--6--6--|----------------------|-------------------------|--7--7--7--7--7--7--7--7--|--5----5------4----5--|----5--5--5--5--5--5--5--|--4--4--4--4--4--4--4--4--|--5----5------4----5--|----5--5--5--5--5--5--5--|--------------------------|--3----3------2----3--|----3--3--3--3--3--3--3--|
--------------------------|--------------------------|--3--3--3--3--3--3--3--3--|--3--3--3--3--3--3--3--3--|--4--4--4--4--4--4--4--4--|--4--4--4--4--4--4--4--4--|--4--4--4--4--4--4--4--4--|--4--4--4--4--4--4--4--4--|--2--2--2--2--2--2--2--2--|--2--2--2--2--2--2--2--2--|--------------------------|--------------------------|
--------------------------|-------------------|-----------------------|--------------------------|-------------------|-----------------------|--------------------------|-------------------|--4----4----4----4-----|--5--5--5--5--5--5--5--5--|--5----------------|--4----4----4----4--4--|--5--5--5--5--5--5--5--5--|--5----------------|--2----2----2----2--4--|--3--3--3--3--3--3--3--3--|--3----------------|--------------------2--|
-----------------------|------------------------|-----------------------|-----------------------|------------------------|-----------------------|--------------------2--|--4----4----4--2--4-----|--------------------2--|--5----5----5----5--2--|--4----4----4--2--4--4--|--5----5----5----5--2--|--5----5----5----5--0--|--2----2----2--0--2--4--|--5----5----5----5--0--|--3----3----3----3-----|---------------------2--|--3----3----3----3-----|
-----------------------|-----------------------|------------------------|-----------------------|-----------------------|------------------------|--4----4----4----4-----|--------------------2--|--4----4----4--2--4-----|--4----4----4----4--4--|--5----5----5----5--2--|--4----4----4--2--4--4--|--2----2----2----2--4--|--5----5----5----5--0--|--2----2----2--0--2--4--|--------------------2--|--3----3----3----3-----|---------------------2--|
-----------------------|-----------------------|-----------------------|-----------------------|-----------------------|-----------------------|--------------------2--|--4----4----4----4-----|--------------------2--|--5----5----5----5--2--|--4----4----4----4--4--|--5----5----5----5--2--|--5----5----5----5--0--|--2----2----2----2--4--|--5----5----5----5--0--|--3----3----3----3-----|--------------------2--|--3----3----3----3-----|
------------------------|-----------------------|-----------------------|------------------------|-----------------------|-----------------------|--4----4----4--2--4-----|--------------------2--|--4----4----4----4-----|--4----4----4--2--4--4--|--5----5----5----5--2--|--4----4----4----4--4--|--2----2----2--0--2--4--|--5----5----5----5--0--|--2----2----2----2--4--|---------------------2--|--3----3----3----3-----|--------------------2--|
-----------------------|------------------------|--------x--x--x--x--x--x--|-----------------------|------------------------|--x--x--x--x--x--x--x--x--|--------------------2--|--4----4----4--2--4-----|--x--x--x--x--x--x--x--x--|--5----5----5----5--2--|--4----4----4--2--4--4--|--x--x--x--x--x--x--x--x--|--5----5----5----5--0--|--2----2----2--0--2--4--|--x--x--x--x--x--x--x--x--|--3----3----3----3-----|---------------------2--|--------------x--x--x--x--|
-----------------------|-----------------------|-----------------------|-----------------------|-----------------------|-----------------------|--4----4----4----4-----|-----------------------|--7--7--7--7--7--------|--4----4----4----4--4--|--5----5----5----5--5--|--7--7--7--7--7--------|--2----2----2----2--4--|--5----5----5----5--5--|--5--5--5--5--5--------|--------------------2--|--3----3----3----3--3--|-----------------------|
-----------------------|-----------------------|-----------------------|-----------------------|-----------------------|-----------------------|-----------------------|--7--7--7--7--7--------|-----------------------|--5--5--5--5--5--------|--7--7--7--7--7--------|--5--5--5--5--5--------|--5--5--5--5--5--------|--5--5--5--5--5--------|--5--5--5--5--5--------|--3--3--3--3--3--------|-----------------------|--3--3--3--3--3--------|
-----------------------|-----------------------|--------------------------|-----------------------|-----------------------|--------------------------|--7--7--7--7--7--------|-----------------------|--------------------------|--7--7--7--7--7--------|--5--5----4--5----5----|--7--7--7--7--7--7--7--7--|--5--5--5--5--5--------|--5--5----4--5----5----|--7--7--7--7--7--7--7--7--|-----------------------|--3--3----2--3----3----|--5--5--5--5--5--5--5--5--|
--------------------------|--------------------------|--------------------------|--------------5--5--5--5--|--------------6--6--6--6--|--6--6--6--6--6--6--6--6--|--7--7--7--7--7--7--7--7--|--7--7--7--7--7--7--7--7--|--7--7--7--7--7--7--7--7--|--7--7--7--7--7--7--7--7--|--5--5--5--5--5--5--5--5--|--5--5--5--5--5--5--5--5--|
--------------5--5--5--5--|--------------------------|--5--5--5--5--5--5--5--5--|--------------------------|--6--6--6--6--6--6--6--6--|--------------------------|--7--7--7--7--7--7--7--7--|--7--7--7--7--7--7--7--7--|--7--7--7--7--7--7--7--7--|--------------------------|--5--5--5--5--5--5--5--5--|--------------------------|
--------------------------|----------------------|-----------------------|--------------------------|----------------------|-----------------------|--------------------------|----------------------|-----------------------|--7--7--7--7--7--7--7--7--|--5----5------5----5--|----5--5----5--5--5----|--------------------------|--5----5------5----5--|----5--5----5--5--5----|--------------------------|--3----3------3----3--|----3--3----3--3--3----|
--------------------------|--------------------------|----------------------|--------------------------|--------------------------|----------------------|--------------------------|--------------------------|----------------------|--7--7--7--7--7--7--7--7--|--7--7--7--7--7--7--7--7--|--5----5------5----5--|--------------------------|--------------------------|--5----5------5----5--|--------------------------|--------------------------|--3----3------3----3--|
-----------------------|------------------------|--------------------------|-----------------------|------------------------|--------------------------|-----------------------|--7----7----7--7--7--6--|--6--6--6--6--6--6--6--6--|----5--5----5--5--5----|--7----7----7--7--7--7--|--7--7--7--7--7--7--7--7--|----5--5----5--5--5----|--5----5----5--5--5--4--|--4--4--4--4--4--4--4--4--|----3--3----3--3--3----|------------------------|--------------------------|
----------------------|-------------------------|--------------------------|----------------------|-------------------------|--3--3--3--3--3--3--3--3--|----------------------|-------------------------|--4--4--4--4--4--4--4--4--|--5----5------4----5--|----5--5--5--5--5--5--5--|--4--4--4--4--4--4--4--4--|--5----5------4----5--|----5--5--5--5--5--5--5--|--2--2--2--2--2--2--2--2--|--3----3------2----3--|----3--3--3--3--3--3--3--|--------------------------|
--------------------------|--------------------------|-------------------|--3--3--3--3--3--3--3--3--|--------------------------|-------------------|--4--4--4--4--4--4--4--4--|--------------------------|-------------------|--4--4--4--4--4--4--4--4--|--5--5--5--5--5--5--5--5--|--5----------------|--2--2--2--2--2--2--2--2--|--5--5--5--5--5--5--5--5--|--5----------------|--------------------------|--3--3--3--3--3--3--3--3--|--3----------------|
----------------------|----------------------|----------------------|----------------------|----------------------|----------------------|------4--4--6----7----|------4--4--6----7----|------4--4--6----7----|------4--4--7----7----|------5--5--7----7----|------4--4--7----7----|----------------------|----------------------|----------------------|----------------------|----------------------|----------------------|
------------------------|--------------------------|-------------------------|------------------------|--------------------------|-------------------------|------4--4--6--6--7--7--|--4--4--4--4--4--4--4-----|-----------------------2-|------5--5--7--7--7--7--|--4--4--4--4--4--4--4--4--|--5--5--5--5--5--5--5--2-|------------------------|--2--2--2--2--2--2--2--4--|--5--5--5--5--5--5--5--0-|------------------------|-----------------------2--|--3--3--3--3--3--3--3----|
--------------------------|--------------------------|--------------------------|--------------------------|--4--4--4--4--4--4--4-----|-----------------------2--|--4--4--4--4--4--4--4--4--|--5--5--5--5--5--5--5--2--|--2--2--2--2--2--2--2--4--|--5--5--5--5--5--5--5--0--|-----------------------2--|--3--3--3--3--3--3--3-----|
--------------------------|--------------------------|--------------------------|--------------------------|--4--4--4--4--4--4--4-----|-----------------------2--|--4--4--4--4--4--4--4--4--|--5--5--5--5--5--5--5--2--|--2--2--2--2--2--2--2--4--|--5--5--5--5--5--5--5--0--|-----------------------2--|--3--3--3--3--3--3--3-----|
--------------------------|--------------------------|--------------------------|--------------------------|--4--4--4--4--4--4--4-----|--------------------------|--4--4--4--4--4--4--4--4--|--5--5--5--5--5--5--5--5--|--2--2--2--2--2--2--2--4--|--5--5--5--5--5--5--5--5--|-----------------------2--|--3--3--3--3--3--3--3--3--|
--------------------------|--------------------------|--------------------------|--------------------------|--------------------------|--------------6--6--6--6--|--7--7--7--7--7--7--7--7--|--7--7--7--7--7--7--7--7--|--7--7--7--7--7--7--7--7--|--7--7--7--7--7--7--7--7--|--5--5--5--5--5--5--5--5--|--5--5--5--5--5--5--5--5--|
--------------------------|--------------5--5--5--5--|--------------5--5--5--5--|--5--5--5--5--5--5--5--5--|--6--6--6--6--6--6--6--6--|--6--6--6--6--6--6--6--6--|--7--7--7--7--7--7--7--7--|--7--7--7--7--7--7--7--7--|--7--7--7--7--7--7--7--7--|--7--7--7--7--7--7--7--7--|--5--5--5--5--5--5--5--5--|--5--5--5--5--5--5--5--5--|
--------------------------|--------------------------|----------------------|--------------------------|--------------------------|----------------------|--------------------------|--------------------------|----------------------|--7--7--7--7--7--7--7--7--|--7--7--7--7--7--7--7--7--|--5----5------5----5--|--------------------------|--------------------------|--5----5------5----5--|--------------------------|--------------------------|--3----3------3----3--|
-----------------------|--------------------------|--------------------------|-----------------------|--------------------------|--------------------------|-----------------------|--------------------------|--------------------------|----5--5----5--5--5----|--7--7--7--7--7--7--7--7--|--7--7--7--7--7--7--7--7--|----5--5----5--5--5----|--------------------------|--------------------------|----3--3----3--3--3----|--------------------------|--------------------------|
----------------------|-----------------------|------------------------|----------------------|-----------------------|------------------------|----------------------|-----------------------|--7----7----7--7--7--6--|--5----5------5----5--|----5--5----5--5--5----|--7----7----7--7--7--7--|--5----5------5----5--|----5--5----5--5--5----|--5----5----5--5--5--4--|--3----3------3----3--|----3--3----3--3--3----|------------------------|
--------------------------|----------------------|-------------------------|--------------------------|----------------------|-------------------------|--6--6--6--6--6--6--6--6--|----------------------|-------------------------|--7--7--7--7--7--7--7--7--|--5----5------4----5--|----5--5--5--5--5--5--5--|--4--4--4--4--4--4--4--4--|--5----5------4----5--|----5--5--5--5--5--5--5--|--------------------------|--3----3------2----3--|----3--3--3--3--3--3--3--|
--------------------------|--------------------------|--3--3--3--3--3--3--3--3--|--3--3--3--3--3--3--3--3--|--4--4--4--4--4--4--4--4--|--4--4--4--4--4--4--4--4--|--4--4--4--4--4--4--4--4--|--4--4--4--4--4--4--4--4--|--2--2--2--2--2--2--2--2--|--2--2--2--2--2--2--2--2--|--------------------------|--------------------------|
--------------------------|--------------------------|--------------------------|--------------------------|--------------------------|--------------------------|--5--5--5--5--5--5--5--5--|--5--5--5--5--5--5--5--5--|--5--5--5--5--5--5--5--5--|--5--5--5--5--5--5--5--5--|--3--3--3--3--3--3--3--3--|--3--3--3--3--3--3--3--3--|
--------------------------|--------------------------|--------------------------|--------------------------|--4--4--4--4--4--4--4--6--|--7--7--7--7--7--7--7--7--|--4--4--4--4--4--4--4--6--|--7--7--7--7--7--7--7--7--|--2--2--2--2--2--2--2--4--|--5--5--5--5--5--5--5--5--|--------------------------|--------------------------|
--------------------------|--------------------------|--------------------------|--------------------------|--------------------------|--------------------------|--5--5--5--5--5--5--5--5--|--5--5--5--5--5--5--5--5--|--5--5--5--5--5--5--5--5--|--5--5--5--5--5--5--5--5--|--3--3--3--3--3--3--3--3--|--3--3--3--3--3--3--3--3--|
--------------------------|--------------------------|--------------------------|--------------------------|--4--4--4--4--4--4--4--6--|--7--7--7--7--7--7--7--7--|--4--4--4--4--4--4--4--6--|--7--7--7--7--7--7--7--7--|--2--2--2--2--2--2--2--4--|--5--5--5--5--5--5--5--5--|--------------------------|--------------------------|
--------------------------|--------------------------|--------------------------|--------------------------|--------------------------|--------------------------|--5--5--5--5--5--5--5--5--|--5--5--5--5--5--5--5--5--|--5--5--5--5--5--5--5--5--|--5--5--5--5--5--5--5--5--|--3--3--3--3--3--3--3--3--|--3--3--3--3--3--3--3--3--|
--------------------------|--------------------------|--------------------------|--------------------------|--4--4--4--4--4--4--4--6--|--7--7--7--7--7--7--7--7--|--4--4--4--4--4--4--4--6--|--7--7--7--7--7--7--7--7--|--2--2--2--2--2--2--2--4--|--5--5--5--5--5--5--5--5--|--------------------------|--------------------------|
--------------------------|--------------------------|---------------------|--------------------------|--------------------------|---------------------|--------------------------|--------------------------|---------------------|--5--5--5--5--5--5--5--5--|--5--5--5--5--5--5--5--5--|--4--4--4------------|--5--5--5--5--5--5--5--5--|--5--5--5--5--5--5--5--5--|--2--2--2------------|--3--3--3--3--3--3--3--3--|--3--3--3--3--3--3--3--3--|---------------------|
------|----|----||------|----|----||------|----|----||------|----|----||------|----|----||------|----|----||
Tap to rate this tab
 
# A B C D E F G H I J K L M N O P Q R S T U V W X Y Z