Op 21 No 12 Minuetto tab with lyrics by Matteo Carcassi - Easy chords and tabs for guitar

Matteo Carcassi – Op 21 No 12 Minuetto tab

MINUETTO Op 21, No 12
Matteo Carcassi (1792 - 1853)

Tablature by: Hernбn Guillermo Renom - dasein79@hotmail.com 

Tuning: Standard
Key: C
Time signature: 3/4


Moderato
             
m i m i i 1 p||---------|--3-----0-----------|--------------------|--------------0-----|||---------|--------------1-----|--0-----------0-----|--1-----3-----------|||*--0-----|--------------0-----|--0-----------0-----|--0-----0-----0-----|||*--------|--------------2-----|--3-----------3-----|--2-----0-----------|||---------|--------------------|--------------------|--------------3-----|||---------|--------------------|--------------------|--------------------| mf
4|--------------------|--1-----------------|--------------0-----||--3-----------------|--------3-----0-----|--1-----------------||--0-----------0-----|--------------0-----|--0-----------------||--------------------|--------------3-----|--2-----------------||--2-----------------|--------------------|--------------3-----||--------------------|--------------------|--------------------| p
7|--------1-----------|--------------||--0-----|--------------0-----||--------------0-----|--1-----------||--------|--3-----0-----------||--2-----------0-----|--0----------*||--0-----|--0-----0-----0-----||--3-----0-----------|--2----------*||--------|--------------------||--------------------|--3-----------||--3-----|--2-----------3-----||--------------3-----|--------------||--------|--------3-----------| >decrescendo>>>>>>>>
i m m m10 p i i i|--------------------|--------------------|--------------0-----||--3-----0-----0-----|------0-1-----1-----|--1-----0-----------||--0-----0-----0-----|--2---0-2-----2-----|--2-----0-----0-----||--------------------|--0-----------------|--------------------||--2-----------------|--------------------|--------------3-----||--------3-----------|--------------------|--------------------| >>>>>>>> mf
i m m i13 p i i p|--------------0-----|--------------------|--------------------||--3-----0-----------|--3-----0-----0-----|------0-1-----------||--0-----0-----0-----|--0-----0-----0-----|--2---0-2-----2-----||--------------------|--------------------|--0-----------0-----||--2-----------3-----|--2-----------------|--------------------||--------3-----------|--------3-----------|--------------------| >decrescendo>>>>>>>>>>>>>>>>>>>>>>>> mf
16|--------------------|--3-----0-----------|--------------------||--------------------|--------------1-----|--0-----------0-----||--0-----------0-----|--------------0-----|--0-----------0-----||--------------------|--------------2-----|--3-----------3-----||--2-----------------|--------------------|--------------------||--3-----------------|--------------------|--------------------| mf >decrescendo>>>>>>>>>>>>>>>>>>>>>>>>
19|--------------0-----|--------------------|--1-----------------||--1-----3-----------|--3-----------------|--------3-----0-----||--0-----0-----0-----|--0-----------0-----|--------------0-----||--2-----0-----------|--------------------|--------------3-----||--------------3-----|--2-----------------|--------------------||--------------------|--------------------|--------------------|
22|--------------0-----|--------1-----------|--------------||--------||--1-----------------|--------------0-----|--1-----------||--------||--0-----------------|--2-----------0-----|--0-----------||--2-----||--2-----------------|--3-----0-----------|--2-----------||--------||--------------3-----|--------------------|--3-----------||--------||--------------------|--------------3-----|--------------||--------| f
25|--0-----------------|--1-p0--------------|--------------------||--------1-----------|--------3-p1--0-----|--3-----0-----------||--------------2-----|--------------------|--------------1-----||--------------------|--------------------|--------------------||--0-----------------|--0-----------------|--0-----------------||--------------------|--------------------|--------------------| >>>>>>>>>>>>>>
28|--0-----------------|--------------------|--1-----1-----0-----||-----3--1-p0--------|--3-----3-----1-----|--------------------||--------------2-----|--------------------|--------------------||--------------------|--3-----3-----2-----|--0-----0-----------||--0-----------------|--------------------|--------------3-----||--------------------|--------------------|--------------------| >decrescendo>>>>>>>>
31|--------------------|--------------------|--0-----------------||--3-----3-----1-----|--0-----------------|--------1-----------||--------------------|--1-----------------|--------------2-----||--------------------|--------------------|--------------------||--2-----2-----0-----|--------------2-----|--0-----------------||--------------------|--0-----------------|--------------------| >decrescendo>>>>>>>>>>>> p
34|--1-p0--------------|--------------------|--0-----------------||--------3-p1--0-----|--3-----0-----------|-----3--1-p0--------||--------------------|--------------1-----|--------------2-----||--------------------|--------------------|--------------------||--0-----------------|--0-----------------|--0-----------------||--------------------|--------------------|--------------------|
37|--------------------|--1-----1-----0-----|--------------------||--3-----3-----1-----|--------------------|--3-----1-----0-----||--------------------|--------------------|--------------------||--3-----3-----2-----|--0-----0-----------|--0-----2-----------||--------------------|--------------3-----|--------------------||--------------------|--------------------|--------------0-----|
40 m i m i m i m i p i m i|--------------||--------|--3-----0-----------|--------------------||--------------||--------|--------------1-----|--0-----------0-----||--2-----------||--0-----|-----0-----0-----0--|-----0-----0-----0--||--------------||--------|--------------2-----|--0-----------3-----||--0-----------||--------|--------------------|--------------------||--------------||--------|--------------------|--------3-----------| <<< mf
43|--------------0-----|--------------------|--1-----------------||--1-----3-----------|--3-----------------|--------3-----0-----||-----0-----0-----0--|-----0--------0-----|-----0-----0-----0--||--2-----0-----------|--------------------|--------------3-----||--------------3-----|--2-----------------|--------------------||--------------------|--------3-----------|--------------------|
46|--------------0-----|--------1-----------|--------------0-----||--1-----------------|--3-----------0-----|--1-----------------||-----0-----0-----0--|-----2-----2-----0--|--0--------------0--||--2-----0-----------|--3-----0-----------|--2-----------------||--------------3-----|--------------------|--3-----------3-----||--------------------|--------------3-----|--------------------| >>>>>>
49|--------------0-----|--------------------|--------------------||--3-----0-----------|--3-----0-----0-----|------0-1-----1-----||-----0-----0-----0--|-----0--------0-----|--2---0-2-----2-----||--------------------|--------------------|--0-----------------||--2-----------3-----|--2-----------------|--------------------||--------3-----------|--------3-----------|--------------------| >decrescendo>>>>>>>>>>>>>>>>>> mf
52|--------------0-----|--------------0-----|--------------------||--1-----0-----------|--3-----0-----------|--3-----0-----0-----||--2-----0--------0--|-----0-----0-----0--|-----0--------0-----||--------------------|--------------------|--------------------||--------------3-----|--2-----------3-----|--2-----------------||--------------------|--------3-----------|--------3-----------| >decrescendo>>>>>>>>>>>>>>>>
55|--------------------|--------------------|--3-----0-----------||------0-1-----------|--------------------|--------------1-----||--2---0-2-----2-----|--0-----------0-----|-----0-----0-----0--||--0-----------0-----|--------------------|--------------2-----||--------------------|--2-----------------|--------------------||--------------------|--3-----------------|--------------------| mf >decrescendo>>>>>>> mf
58|--------------------|--------------0-----|--------------------||--0-----------0-----|--1-----3-----------|--3-----------------||-----0-----0-----0--|-----0-----0-----0--|-----0--------0-----||--0-----------3-----|--2-----0-----------|--------------------||--------------------|--------------3-----|--2-----------------||--------3-----------|--------------------|--------3-----------|
61|--1-----------------|--------------0-----|--------1-----------||--------3-----0-----|--1-----------------|--3-----------0-----||-----0-----0-----0--|-----0-----0-----0--|-----2-----2-----0--||--------------3-----|--2-----0-----------|--3-----0-----------||--------------------|--------------3-----|--------------------||--------------------|--------------------|--------------3-----|
64|--------------------|||--1-----------------|||--0-----------------|||--2-----------------|||--3-----------------|||--------------------||
Please rate this tab:
x1.0