Etude - Moderato In Em tab with lyrics by Mauro Giuliani - Easy chords and tabs for guitar

Mauro Giuliani – Etude - Moderato In Em tab

 Mauro Giuliani
 Etude "Moderato in Em"
 Transcribed by Tarek Yazbek
 E-mail: yazbek999@hotmail.com


--3-- --3-- (the same timing all the way through) |---------0---------------------|---------0-------3-------------| |-----0-------0-------0-------1-|-----0-------0-------0-------0-| |---0-------0-------0-------2---|---0-------0-------0-------0---| |-----------------2-------2-----|-------------------------------| |-------------------------------|-------------------------2-----| |-0-----------------------------|-0-----------------------------|
|---------0---------------------|---------0-------3-------------| |-----0-------0-------0-------1-|-----0-------0-------0-------0-| |---0-------0-------0-------2---|---0-------0-------0-------0---| |-----------------2-------2-----|-------------------------------| |-------------------------------|-------------------------2-----| |-0-----------------------------|-0-----------------------------|
|---------1-------2-------------|---------2-------3-------------| |-----0-------0-------0-------0-|-----0-------0-------0-------0-| |---2-------2-------2-------2---|---0-------0-------0-------0---| |-1-----------------------------|-2-----------------------------| |-------------------------2-----|-------------------------2-----| |-------------------------------|-------------------------------|
IV___________ |---------5---------------3-----|-2-----------------------------| |-----4-------4-------0-------0-|---0-------0-------0-------0---| |---4-------4-------0-------0---|-------------------------------| |-4---------------2-------------|-1---2---1---------------------| |-------------------------------|-------------3---2---0---------| |-------------------------------|-------------------------3---2-|
|---------0---------------------|---------0-------3-------------| |-----0-------0-------0-------1-|-----0-------0-------0-------0-| |---0-------0-------0-------2---|---0-------0-------0-------0---| |-----------------2-------2-----|-------------------------------| |-------------------------------|-------------------------2-----| |-0-----------------------------|-0-----------------------------|
|---------0---------------------|---------0-------3-------------| |-----0-------0-------0-------1-|-----0-------0-------0-------0-| |---0-------0-------0-------2---|---0-------0-------0-------0---| |-----------------2-------2-----|-------------------------2-----| |-------------------------------|-------------------------------| |-0-----------------------------|-0-----------------------------|
|---------4-------5-----------2-|-----3-------3-------3-------3-| |-----3-------3-------3---------|---0-------0-------0-------0---| |---5-------5-------5-------5---|-0-----------------------------| |-0-----------------------0-----|---------0---------------------| |-------------------------------|-----------------2-------------| |-------------------------------|-------------------------3-----|
|---------4-------5-----------2-|-----3-------3-------3-------3-| |-----3-------3-------3---------|---0-------0-------0-------0---| |---5-------5-------5-------5---|-------------------------------| |-0-----------------------0-----|-2-------0---------------------| |-------------------------------|-----------------2-------------| |-------------------------------|-------------------------3-----|
II_____ |---------1-------2-------------|-0-----------------------------| |-----0-------0-------0-------4-|-----0-------0-------0-------0-| |---2-------2-------2-------2---|---0-------0-------0-------0---| |-1-----------------------------|-2-----------------------------| |-------------------------2-----|---------2---------------------| |-------------------------------|-----------------3-------0-----|
II____ |---------1-------2-------------|-0-----------------------------| |-----0-------0-------0-------4-|-----0-------0-------0-------0-| |---2-------2-------2-------2---|---0-------0-------0-------0---| |-1-----------------------------|-2-----------------------------| |-------------------------2-----|---------2---------------------| |-------------------------------|-----------------3-------0-----|
I____________________ |---------1-------1-------0-----|-------------------------0-----| |-----1-------1-------1-------1-|---------4-----------0-----0---| |---2-------2-------2-------2---|-----5-----5-------0---------0-| |-------------------------------|---7---------7-----------------| |-0-----------------------------|-0-----------------------------| |-------------------------------|-----------------3-------------|
I____________________ |---------1-------1-------0-----|-------------------------0-----| |-----1-------1-------1-------1-|---------4-----------0-----0---| |---2-------2-------2-------2---|-----5-----5-------0---------0-| |-------------------------------|---7---------7-----------------| |-0-----------------------------|-0-----------------------------| |-------------------------------|-----------------3-------------|
|---------1-------5-------------|---------0-------3-------------| |-----1-------1-------1-------1-|-----0-------0-------0-------0-| |---2-------2-------2-------2---|---0-------0-------0-------0---| |-------------------------------|-------------------------------| |-0-----------------------0-----|-2-----------------------2-----| |-------------------------------|-------------------------------|
II___________________________ |-----------------2-------------|---------0---------------------| |---------4---------------------|-----0-------0-------0-------1-| |-----2-------2-------2-------2-|---0-------0-------0-------2---| |---4-------4-------4-------4---|-----------------2-------2-----| |-2-----------------------2-----|-------------------------------| |-------------------------------|-0-----------------------------|
|---------0-------3-------------|---------0---------------------| |-----0-------0-------0-------0-|-----0-------0-------0-------1-| |---0-------0-------0-------0---|---0-------0-------0-------2---| |-------------------------------|-----------------2-------2-----| |-------------------------2-----|-------------------------------| |-0-----------------------------|-0-----------------------------|
|---------0-------7-------------|---------0-------12------------| |-----0-------0-------0-------0-|-----0-------0--------0------0-| |---0-------0-------0-------0---|---0-------0--------0------0---| |-------------------------------|-------------------------------| |-------------------------------|-------------------------------| |-0-----------------------7-----|-0-----------------------7-----|
|---------0-------14------------|---------0---------------------| |-----0-------0-----------------|-----0-------0-----------------| |---0-------0----------0------0-|---0-------0-------0-----------| |--------------------0------0---|-----------------2-------2-----| |-------------------------------|---------------------2-------2-| |-0-----------------------7-----|-0-------------------------3---|
|------------------------------|| |------------------------------|| |------------------------------|| |------------------------------|| |------------------------------|| |-0----------------------------||
Please rate this tab:
x1.0