Maximum Capacity - Royalty tab

)= bend downward
(= bend downward
/= slide up
\= slide down
<->= strike note after sliding
}= slur


      
         the intro is played without distortion, and about half gain

|--------------------------------------------------------------||--------------------------------------------------------------||--------------------------------------------------------------||--------------------------------------------------------------||--------------------------------------------------------------||--0-0--2-2--4-4---0-0--2-2--4-4-2)--0-0-0--2-2--4--4--6-6-4)--|
|--------------------------------------------------------------||--------------------------------------------------------------||--------------------------------------------------------------||--------------------------------------------------------------||--------------------------------------------------------------||--0-0-0--2-2--4-4-6-6-4)---0-0--2-2--4-4--2-2--0--------------|
~then VERSE 1~ (play with max gain, no distortion)
|----------------------------------------------------------------||----------------------------------------------------------------||----------------------------------------------------------------||----------------------------------------------------------------||--0-0--1-1--3-3--|--0-0--1-1--3-3--1)--1-1-1--2-2--4-4--6-6--4)-||--0-0--2-2--4-4--|--0-0--2-2--4-4--2)--0-0-0--2-2--4-4--6-6--4)-|
|--------------------------------------------------------------||--------------------------------------------------------------||--------------------------------------------------------------||--------------------------------------------------------------||--0-0-0--2--2--2-4-4/6--4--|--1-1--2-2--4-4--2-2--0)----------||--0-0-0--2--2--2-4-4/6--4--|--0-0--2-2--4-4--2-2--0)----------|
~ok, heres the CHORUS (max gain, no distortion; kinda tricky)
|--------------------------------------------------------------||--------------------------------------------------------------||--------------------------------------------------------------||--------------------------------------------------------------||--1-1--3---1-0-0-1--3) |--0-0--3---0-0-0-0--3)
|--------------------------------------------------------------||--------------------------------------------------------------||--------------------------------------------------------------||--------------------------------------------------------------||--1-1--3---0-1-1-0--3-0--0-3-0--0-3---0-----------------------||--0-0--3---0-0-0-0--3-0--0-3-0--0-3---0-----------------------|
ok, now verse 2 PRE VERSE (play with a little over half gain)
|--------------------------------------------------------------||--------------------------------------------------------------||--------------------------------------------------------------||----0---0---0---0---2---2---2---4---4---4---2---2---0---0---0-||--0---0---0---0---0---0---0---0---0---0---0---0---0---0---0---||--------------------------------------------------------------|
now heres VERSE 2 (need 2 guitars, play with max gain, no dist.)
|--------------------------------------------------------------||--------------------------------------------------------------||--------------------------------------------------------------||--------------------------------------------------------------||--1-1--2-2--4-4--|--1-1-1--2-4-2)---0-0-1-2--4-4--1-1--2-4-2)-||--0-0--2-2--4-4--|--0-0-0--2-4-2)---0-0-0-2--4-4--0-0--2-4-2)-|
|----------------------------------------------------------------||--4-2--0--|--4--2-2--0-------------------------4-2)--4-4--2-2-0-||----------------------------------------------------------------||----------------------------------------------------------------||----------------------1-1--2-2--4-4--|--6/8\<6>-----------------||----------------------0-0--2-2--4-4--|--6/8\<6>-----------------|
CHORUS again
|--------------------------------------------------------------||--------------------------------------------------------------||--------------------------------------------------------------||--------------------------------------------------------------||--1-1--3---1-0-0-1--3) |--0-0--3---0-0-0-0--3)
|--------------------------------------------------------------||--------------------------------------------------------------||--------------------------------------------------------------||--------------------------------------------------------------||--1-1--3---0-1-1-0--3-0--0-3-0--0-3---0-----------------------||--0-0--3---0-0-0-0--3-0--0-3-0--0-3---0-----------------------|
now heres verse 3 PRE VERSE (max gain, no distortion)
|--------------------------------------------------------------||--------------------------------------------------------------||--------------------------------------------------------------||--------------------------------------------------------------||----0---0---0---2---2---2---2---4---4---4---4---2---2---2---0-||--0---0---0---0---0---0---0---0---0---0---0---0---0---0---0---|
ok, now heres VERSE 3 (max gain, very low distortion, 2 guitars)
|--------------------------------------------------------------||-----------------------------------------------4-2)-----------||--------------------------------------------------------------||--------------------------------------------------------------||--1-1--2-2--4-4---1-1--2-4--4-2)--1-1--2--2/4-----------------||--0-0--2-2--4-4---0-0--2-4--4-2)--0-0--2--2/4-----------------|
|--------------------------------------------------------------||--------------------------------------------------------------||--------------------------------------------------------------||---------------------------------------------------4-4--------||--0-0-2-2--4-4-2--|--0-0-2--2-2-2-4-4---0-0-0-2-2--4-4--------||--0-0-2-2--4-4-2--|--0-0-2--2-2-2-4-4---0-0-0-2-2--4-4--------|
|--------------------------------------------------------------||------------------------------0-2-4--2)--4-4--2-2--0----------||--------------------------------------------------------------||---------4----------------------------------------------------||--0--2-2-4--1-1-1--2-2-2-4-2)------------4-4--2-2--0----------||--0--2-2-4--0-0-0--2-2-2-4-2)------------4-4--2-2--0----------|
ok, now the BREAKDOWN (pre-solo, max gain, no dist., 2 guitars)
|--------------------------------------------------------------||--------------------------------------------------------------||--------------------------------------------------------------||--------------------------------------------------------------||-------3-0-------4-0-------5-0-4-0-3-0-2-0--|--0-0--3-0--0-0--4-0--0-0--5-0-4-0-3-0-2-0--
|--------------------------------------------------------------||--------------------------------------------------------------||--12-12-14-12-16-12-14-12-12)12)12)12)12)12)------------------||--------------------------------------------------------------||------3-0-4-0-5-0-4-0-3-0--2-2-2-2-2-2------------------------||--0-0-3-0-4-0-5-0-4-0-3-0--2-2-2-2-2-2------------------------|
THEN THIS AGAIN:
|--------------------------------------------------------------||--------------------------------------------------------------||--------------------------------------------------------------||--------------------------------------------------------------||-------3-0-------4-0-------5-0-4-0-3-0-2-0--|--0-0--3-0--0-0--4-0--0-0--5-0-4-0-3-0-2-0--
|--------------------------------------------------------------||--------------------------------------------------------------||--12-12-14-12-16-12-14-12-12)12)12)12)12)12)------------------||--------------------------------------------------------------||------3-0-5-0-3-0--2-2-2-2-2-2--2-2-2-2-----------------------||--0-0-3-0-5-0-3-0--2-2-2-2-2-2--2-2-2-2-----------------------|
OK! THEN FUN BEGINS! ~SOLO~ (max gain, distortion, 2 guitars)
|-------------------------------------------------7)7)7)7)7)------------||--(9----9-9-7--5-5-7-5---5-5-7-5---5-5-7-5---5-5-7)7)7)7)7)------------||--(9-------------------------------------------------------------------||-----------------------------------------------------------------------||--12)12)12)--12-12-12-12--12-12-12-12--12-12-12-12--12-12-12)12)12)12)-||--12)12)12)--10-10-11-10--10-10-11-10--10-10-11-10--10-10-11)11)11)11)-|
|--------------------------------------------9)9)9)9)-------------------||--9-7-9--9-9-9--9-7-9--9-9-9--9-7-9--9-9-9--9)9)9)9)--12\10|-----------------------------------------------------------------------||-----------------------------------------------------------------------||--14--14-14--14-14-14-14)14)14)14)---12-10-10|--12--12-12--12-12-12-12)12)12)12)---12-10-10
|-----------------17)--17)--17)--17)-17)17)17)17}----------------------||--15\13|----------------------------------------------------------------------||----------------------------------------------------------------------||--14-12-12|--14-12-12
|-----------------------------------------------------------------------||--15\13|-----------------------------------------------------------------------||-----------------------------------------------------------------------||--14-12-12|--14-12-12
|-----------------------------------------------------------------------||--6-6--5-5--4-4--3-3---------------------------------------------------||---------------------9)9)9)9)9)9)9)9)9)9)9)--11-11-13-11--11-11-13-11--||-----------------------------------------------------------------------||--10-10-10-10--9-9-9-9-9-9--16)16)16)16)16)--14-14-14-14--14-14-14-14--||---9--9--9--9--8-8-8-8-8-8--15)15)15)15)15)--12-12-13-12--12-12-13-12--|
|-----------------------------------------------------------------------||---------------------13)13)13)13)--------------------------------------||--11-11-13-11--11-11-13)13)13)13)--15-13-15--15-15-15--15-13-15--------||-----------------------------------------------------------------------||--14-14-14-14--14-14-14)14)14)14)--16-16-16--16-16-16--16-16-16--------||--12-12-13-12--12-12-13)13)13)13)--14-14-14--14-14-14--14-14-14--------|
|-----------------------------------------14)14)14)14)--12}-10}---------||-------------------------14)-14)-14)-14)-14)14)14)14)--12}-10}-9-9-9-9-||--15-15-15--19\16|-----------------------------------------------------------------------||--16-16-16--18-16-16<6x--19)-19)-19)-19)-19)19)19)19)--16}-14}---------||--14-14-14--18-16-16<6x--19)-19)-19)-19)-19)19)19)19)--16}-14}---------|
|-----------------------------------------------------------------------||--8-8-8-8--7-7-7--6-6-6--5-5-5--4-4-2-2--0_____________________________||-----------------------------------------0_____________________________||-----------------------------------------0_____________________________||--9-9-9-9--8-8-8--7-7-7--6-6-6--4-4-2-2--0_____________________________||--9-9-9-9--8-8-8--7-7-7--6-6-6--4-4-2-2--0_____________________________|
thats it....last part w/ the underlines means fade out
Tap to rate this tab
 
# A B C D E F G H I J K L M N O P Q R S T U V W X Y Z