Mayday Parade - Anywhere But Here tab version 3

Standard Tuning (E A D G B E)
h=hammer on
p=pull of

Both guitars:----------------------------------|----------------------------------|-6-----------6--------------------|-6--6--7--9--6--6--7--9--9-9--9-9-|-4--6--7--9--4--6--7--9--9-9--9-9-|----4--5--7-----4--5--7--7-7--7-7-|
Lead:-----7---4h5p4---4h5p4-----7---4h5p4---7p5p4-|---5---5-------5---------5---5-------5-------|-6---------------------6---------------------|---------------------------------------------|---------------------------------------------|---------------------------------------------|
-----7---4h5p4---4h5p4-----7---4h5p4-----|---5---5-------5---------5---5-------5---|-6---------------------6---------------4-|-----------------------------------------|-----------------------------------------|-----------------------------------------|
Rhythm:-------------------------------------------------------------|-------------------------------------------------------------|-6--6-6-6-6-6-6----------------------------------------------|-6--6-6-6-6-6-6-6--6-6-6-6-6-6-7--7-7-7-7-7-7-9--9-9-9-9-9-9-|-4--4-4-4-4-4-4-6--6-6-6-6-6-6-7--7-7-7-7-7-7-9--9-9-9-9-9-9-|----------------4--4-4-4-4-4-4-5--5-5-5-5-5-5-7--7-7-7-7-7-7-|
-------------------------------------------------------------|-------------------------------------------------------------|-6--6-6-6-6-6-6----------------------------------------------|-6--6-6-6-6-6-6-6--6-6-6-6-6-6-7--7-7-7-7-7-7-9--9-9-9-9-9-9-|-4--4-4-4-4-4-4-6--6-6-6-6-6-6-7--7-7-7-7-7-7-9--9-9-9-9-9-9-|----------------4--4-4-4-4-4-4-5--5-5-5-5-5-5-7--7-7-7-7-7-7-|
Both guitars:-------------------------------------------------------|-------------------------------------------------------|-6-----------6-----------6-----------6-----------------|-6--6--7--9--6--6--7--9--6--6--7--9--6--6--7--9--9-9-9-|-4--6--7--9--4--6--7--9--4--6--7--9--4--6--7--9--9-9-9-|----4--5--7-----4--5--7-----4--5--7-----4--5--7--7-7-7-|
-----------------------------------------|-----------------------------------------|-----------------------------------------|-6-6--6-6--6--6-6--6-6--7--7-7-7-7-7-7-7-|-6-6--6-6--6--6-6--6-6--7--7-7-7-7-7-7-7-|-4-4--4-4--4--4-4--4-4--5--5-5-5-5-5-5-5-|
-------------------------------------------------------------|-------------------------------------------------------------|-6--6-6-6-6-6-6-2--2-2-2-2-2-2----------------4--4-4-4-4-4-4-|-6--6-6-6-6-6-6-2--2-2-2-2-2-2-2--2-2-2-2-2-2-4--4-4-4-4-4-4-|-4--4-4-4-4-4-4-0--0-0-0-0-0-0-2--2-2-2-2-2-2-2--2-2-2-2-2-2-|-------------------------------0--0-0-0-0-0-0----------------|
-------------------------------------------------------------|-------------------------------------------------------------|-6--6-6-6-6-6-6-2--2-2-2-2-2-2----------------4--4-4-4-4-4-4-|-6--6-6-6-6-6-6-2--2-2-2-2-2-2-2--2-2-2-2-2-2-4--4-4-4-4-4-4-|-4--4-4-4-4-4-4-0--0-0-0-0-0-0-2--2-2-2-2-2-2-2--2-2-2-2-2-2-|-------------------------------0--0-0-0-0-0-0----------------|
--------------------------------|--------------------------------|-5--5-5-5-5-5-5-5-5-5-5-5-5-5-5-|-5--5-5-5-5-5-5-5-5-5-5-5-5-5-5-|-3--3-3-3-3-3-3-3-3-3-3-3-3-3-3-|--------------------------------|
Lead:-----7---4h5p4---4h5p4-----7--4-|---5---5-------5---------5------|-6---------------------6--------|--------------------------------|--------------------------------|--------------------------------|
Rhythm:------------------------------------------------|------------------------------------------------|-6--6-6-6-6-6-6---------------------------------|-6--6-6-6-6-6-6-6--6-6-6-6-6-6-7--7-7-7-7-7-7-9-|-4--4-4-4-4-4-4-6--6-6-6-6-6-6-7--7-7-7-7-7-7-9-|----------------4--4-4-4-4-4-4-5--5-5-5-5-5-5-7-|
Lead: I couldn't figure out the lead for this part.
Rhythm:--------------------------------------------|--------------------------------------------|-6--9-11--5--6--4--2----6--9-11--5--6--4--2-|-6--9-11--5--6--4--2----6--9-11--5--6--4--2-|-4--7-9---3--4--2--0----4--7-9---3--4--2--0-|--------------------------------------------|
Both guitars:-------------------------|-------------------------|-6--2-----4--6--2-----4--|-6--2--2--4--6--2--2--4--|-4--0--2--2--4--0--2--2--|-------0-----------0-----|
-------------------------------------------------------------|-------------------------------------------------------------|-8--8-8-8-8-8-8-4--4-4-4-4-4-4----------------6--6-6-6-6-6-6-|-8--8-8-8-8-8-8-4--4-4-4-4-4-4-4--4-4-4-4-4-4-6--6-6-6-6-6-6-|-6--6-6-6-6-6-6-2--2-2-2-2-2-2-4--4-4-4-4-4-4-4--4-4-4-4-4-4-|-------------------------------2--2-2-2-2-2-2----------------|
-------------------------------------------------------------|-------------------------------------------------------------|-8--8-8-8-8-8-8-4--4-4-4-4-4-4----------------6--6-6-6-6-6-6-|-8--8-8-8-8-8-8-4--4-4-4-4-4-4-4--4-4-4-4-4-4-6--6-6-6-6-6-6-|-6--6-6-6-6-6-6-2--2-2-2-2-2-2-4--4-4-4-4-4-4-4--4-4-4-4-4-4-|-------------------------------2--2-2-2-2-2-2----------------|
----------------------------------|----------------------------------|-7--7-7-7-7-7-7-7-7-7-7-7-7-7-7-7-|-7--7-7-7-7-7-7-7-7-7-7-7-7-7-7-7-|-5--5-5-5-5-5-5-5-5-5-5-5-5-5-5-5-|----------------------------------|
Lead:-----9---6h7p6---6h7p6-----9---6h7p6---9p7p6-|---7---7-------7---------7---7-------7-------|-8---------------------8---------------------|---------------------------------------------|---------------------------------------------|---------------------------------------------|
-----9---6h7p6---6h7p6---7--7--6-|---7---7-------7-------7---------|-8-------------------------------|---------------------------------|---------------------------------|---------------------------------|
Rhythm:-------------------------------|-------------------------------|-8--8-8-8-8-8-8----------------|-8--8-8-8-8-8-8-9--9-9-9-9-9-9-|-6--6-6-6-6-6-6-9--9-9-9-9-9-9-|----------------7--7-7-7-7-7-7-|
---------------------------------------------|---------------------------------------------|-11--11-11-11-11-11-11-----------------------|-11--11-11-11-11-11-11-11--11-11-11-11-11-11-|-9---9--9--9--9--9--9--11--11-11-11-11-11-11-|-----------------------9---9--9--9--9--9--9--|
--------------------------------------------|--------------------------------------------|-8--8-8-8-8-8-8------------------11--11-----|-8--8-8-8-8-8-8-9--9-9-9-9-9-9-9-11--11--11-|-6--6-6-6-6-6-6-9--9-9-9-9-9-9-9-9---9---11-|----------------7--7-7-7-7-7-7-7---------9--|
Tap to rate this tab
 
# A B C D E F G H I J K L M N O P Q R S T U V W X Y Z