Mayhem – Deathcrush tab

Deathcrush
   By
Mayhem

This is the first black metal song I've ever tabbed. It's a really simple song to play.
Have Fun :-)
E-Mail any questions/comments to XxRagNaroKxX@yahoo.com

|--------------------|--------------------|--------------------||--------------------|--------------------|--------------------||--------------------|--------------------|--------------------||--------------------|--------------8--8--|--------------------||-2--2-5-(5)-2-9--8--|-2--2-5-(5)-2-8--8--|-2--2-5-(5)-2-9--8--||-0--0-3-(3)-0-7--6--|-0--0-3-(3)-0-6--6--|-0--0-3-(3)-0-7--6--|
|--------------------|--------------------|--------------------||--------------------|--------------------|--------------------||--------------------|--------------------|--------------------||--------------8--8--|--------------------|--------------8--8--||-2--2-5-(5)-2-8--8--|-2--2-5-(5)-2-9--8--|-2--2-5-(5)-2-8--8--||-0--0-3-(3)-0-6--6--|-0--0-3-(3)-0-7--6--|-0--0-3-(3)-0-6--6--|
|--------------------|--------------------|--------------------||--------------------|--------------------|--------------------||--------------------|--------------------|--------------------||--------------------|--------------8--8--|--------------------||-2--2-5-(5)-2-9--8--|-2--2-5-(5)-2-8--8--|-2--2-5-(5)-2-9--8--||-0--0-3-(3)-0-7--6--|-0--0-3-(3)-0-6--6--|-0--0-3-(3)-0-7--6--|
|--------------------|--------------------|--------------------||--------------------|--------------------|--------------------||--------------------|--------------------|--------------------||--------------8--8--|--------------------|--------------8--8--||-2--2-5-(5)-2-8--8--|-2--2-5-(5)-2-9--8--|-2--2-5-(5)-2-8--8--||-0--0-3-(3)-0-6--6--|-0--0-3-(3)-0-7--6--|-0--0-3-(3)-0-6--6--|
|---------------------------------------------------------------------||---------------------------------------------------------------------||---------------------------------------------------------------------||---------------------------------------------------------------------||---------------------------------------------------------------------||-5-5-5-5-6-6-6-6-5-5-5-5-6-6-6-6-5-5-5-5-6-6-6-6-10-10-10-10-8-8-8-8-|
|---------------------------------------------------------------------||---------------------------------------------------------------------||---------------------------------------------------------------------||---------------------------------------------------------------------||---------------------------------------------------------------------||-5-5-5-5-6-6-6-6-5-5-5-5-6-6-6-6-5-5-5-5-6-6-6-6-10-10-10-10-8-8-8-8-|
|---------------------------------------------------------------------||---------------------------------------------------------------------||---------------------------------------------------------------------||---------------------------------------------------------------------||---------------------------------------------------------------------||-5-5-5-5-6-6-6-6-5-5-5-5-6-6-6-6-5-5-5-5-6-6-6-6-10-10-10-10-8-8-8-8-|
|---------------------------------------------------------------------||---------------------------------------------------------------------||---------------------------------------------------------------------||---------------------------------------------------------------------||---------------------------------------------------------------------||-5-5-5-5-6-6-6-6-5-5-5-5-6-6-6-6-5-5-5-5-6-6-6-6-10-10-10-10-8-8-8-8-|
|---------------------------------------------------------------------||---------------------------------------------------------------------||---------------------------------------------------------------------||---------------------------------------------------------------------||---------------------------------------------------------------------||-5-5-5-5-6-6-6-6-5-5-5-5-6-6-6-6-5-5-5-5-6-6-6-6-10-10-10-10-8-8-8-8-|
|---------------------------------------------------------------------||---------------------------------------------------------------------||---------------------------------------------------------------------||---------------------------------------------------------------------||---------------------------------------------------------------------||-5-5-5-5-6-6-6-6-5-5-5-5-6-6-6-6-5-5-5-5-6-6-6-6-10-10-10-10-8-8-8-8-|
|---------------------------------------------------------------------||---------------------------------------------------------------------||---------------------------------------------------------------------||---------------------------------------------------------------------||---------------------------------------------------------------------||-5-5-5-5-6-6-6-6-5-5-5-5-6-6-6-6-5-5-5-5-6-6-6-6-10-10-10-10-8-8-8-8-|
|---------------------------------------------------------------------||---------------------------------------------------------------------||---------------------------------------------------------------------||---------------------------------------------------------------------||---------------------------------------------------------------------||-5-5-5-5-6-6-6-6-5-5-5-5-6-6-6-6-5-5-5-5-6-6-6-6-10-10-10-10-8-8-8-8-|
|---------------------------------|----------------------------------||---------------------------------|----------------------------------||---------------------------------|----------------------------------||---------------------------------|----------------------------------||-7-------7-------7---7---6-6-6-6-|-7-------7-------7---7---6-6-6-6--||-5-5-5-5-5-5-5-5-5-5-5-5-4-4-4-4-|-5-5-5-5-5-5-5-5-5-5-5-5-4-4-4-4--|
|---------------------------------|---------------------------------||---------------------------------|---------------------------------||---------------------------------|---------------------------------||---------------------------------|---------------------------------||-7-------7-------7---7---6-6-6-6-|-7-------7-------7---7---6-6-6-6-||-5-5-5-5-5-5-5-5-5-5-5-5-4-4-4-4-|-5-5-5-5-5-5-5-5-5-5-5-5-4-4-4-4-|
|---------------------------------|---------------------------------||---------------------------------|---------------------------------||---------------------------------|---------------------------------||---------------------------------|---------------------------------||-7-------7-------7---7---6-6-6-6-|-7-------7-------7---7---6-6-6-6-||-5-5-5-5-5-5-5-5-5-5-5-5-4-4-4-4-|-5-5-5-5-5-5-5-5-5-5-5-5-4-4-4-4-|
|---------------------------------|---------------------------------||---------------------------------|---------------------------------||---------------------------------|---------------------------------||---------------------------------|---------------------------------||-7-------7-------7---7---6-6-6-6-|-7-------7-------7---7---6-6-6-6-||-5-5-5-5-5-5-5-5-5-5-5-5-4-4-4-4-|-5-5-5-5-5-5-5-5-5-5-5-5-4-4-4-4-|
|---------------------------------------------------------------------||---------------------------------------------------------------------||---------------------------------------------------------------------||---------------------------------------------------------------------||---------------------------------------------------------------------||-5-5-5-5-6-6-6-6-5-5-5-5-6-6-6-6-5-5-5-5-6-6-6-6-10-10-10-10-8-8-8-8-|
|---------------------------------------------------------------------||---------------------------------------------------------------------||---------------------------------------------------------------------||---------------------------------------------------------------------||---------------------------------------------------------------------||-5-5-5-5-6-6-6-6-5-5-5-5-6-6-6-6-5-5-5-5-6-6-6-6-10-10-10-10-8-8-8-8-|
|---------------------------------------------------------------------||---------------------------------------------------------------------||---------------------------------------------------------------------||---------------------------------------------------------------------||---------------------------------------------------------------------||-5-5-5-5-6-6-6-6-5-5-5-5-6-6-6-6-5-5-5-5-6-6-6-6-10-10-10-10-8-8-8-8-|
|---------------------------------|----------------------------------||---------------------------------|----------------------------------||---------------------------------|----------------------------------||---------------------------------|----------------------------------||-7-------7-------7---7---6-6-6-6-|-7-------7-------7---7---6-6-6-6--||-5-5-5-5-5-5-5-5-5-5-5-5-4-4-4-4-|-5-5-5-5-5-5-5-5-5-5-5-5-4-4-4-4--|
|---------------------------------|---------------------------------||---------------------------------|---------------------------------||---------------------------------|---------------------------------||---------------------------------|---------------------------------||-7-------7-------7---7---6-6-6-6-|-7-------7-------7---7---6-6-6-6-||-5-5-5-5-5-5-5-5-5-5-5-5-4-4-4-4-|-5-5-5-5-5-5-5-5-5-5-5-5-4-4-4-4-|
|---------------------------------|---------------------------------||---------------------------------|---------------------------------||---------------------------------|---------------------------------||---------------------------------|---------------------------------||-7-------7-------7---7---6-6-6-6-|-7-------7-------7---7---6-6-6-6-||-5-5-5-5-5-5-5-5-5-5-5-5-4-4-4-4-|-5-5-5-5-5-5-5-5-5-5-5-5-4-4-4-4-|
|---------------------------------|------|---------------------||---------------------------------|------|---------------------||---------------------------------|------|---------------------||---------------------------------|------|---------------------||-7-------7-------7---7---6-6-6-6-|-7----|--------------2--1---||-5-5-5-5-5-5-5-5-5-5-5-5-4-4-4-4-|-5----|-0--0-3-(3)-0--------|
|--------------------|--------------------|--------------------||--------------------|--------------------|--------------------||--------------------|--------------------|--------------------||--------------------|--------------------|--------------------||--------------1--1--|--------------2--1--|--------------1--1--||-0--0-3-(3)-0-------|-0--0-3-(3)-0-------|-0--0-3-(3)-0-------|
|--------------------|--------------------|--------------------||--------------------|--------------------|--------------------||--------------------|--------------------|--------------------||--------------------|--------------------|--------------------||-2--2-5-(5)-2-9--8--|-2--2-5-(5)-2-8--8--|-2--2-5-(5)-2-9--8--||-0--0-3-(3)-0-7--6--|-0--0-3-(3)-0-6--6--|-0--0-3-(3)-0-7--6--|
|----------------------||----------------------||----------------------||----------------------||-2--2-5-(5)-2-8--8----||-0--0-3-(3)-0-6--6----|
|---------------------------------------------------------------------||---------------------------------------------------------------------||---------------------------------------------------------------------||---------------------------------------------------------------------||---------------------------------------------------------------------||-5-5-5-5-6-6-6-6-5-5-5-5-6-6-6-6-5-5-5-5-6-6-6-6-10-10-10-10-8-8-8-8-|
|-----------------------------------------------------||-----------------------------------------------------||-----------------------------------------------------||-----------------------------------------------------||-----------------------------------------------------||-5-5-5-5-6-6-6-6-5-5-5-5-6-6-6-6-5-5-5-5-6-6-6-6-----|
|---------------------------------------------------------------------||---------------------------------------------------------------------||---------------------------------------------------------------------||---------------------------------------------------------------------||---------------------------------------------------------------------||-5-5-5-5-6-6-6-6-5-5-5-5-6-6-6-6-5-5-5-5-6-6-6-6-10-10-10-10-8-8-8-8-|
|-----------------------------------------------------||-----------------------------------------------------||-----------------------------------------------------||-----------------------------------------------------||-----------------------------------------------------||-5-5-5-5-6-6-6-6-5-5-5-5-6-6-6-6-5-5-5-5-6-6-6-6-----|
|---------------------------------------------------------------------||---------------------------------------------------------------------||---------------------------------------------------------------------||---------------------------------------------------------------------||---------------------------------------------------------------------||-5-5-5-5-6-6-6-6-5-5-5-5-6-6-6-6-5-5-5-5-6-6-6-6-10-10-10-10-8-8-8-8-|
|-----------------------------------------------------||-----------------------------------------------------||-----------------------------------------------------||-----------------------------------------------------||-----------------------------------------------------||-5-5-5-5-6-6-6-6-5-5-5-5-6-6-6-6-5-5-5-5-6-6-6-6-----|
|---------------------------------------------------------------------||---------------------------------------------------------------------||---------------------------------------------------------------------||---------------------------------------------------------------------||---------------------------------------------------------------------||-5-5-5-5-6-6-6-6-5-5-5-5-6-6-6-6-5-5-5-5-6-6-6-6-10-10-10-10-8-8-8-8-|
|---------------------------------------------------------------------||---------------------------------------------------------------------||---------------------------------------------------------------------||---------------------------------------------------------------------||---------------------------------------------------------------------||-5-5-5-5-6-6-6-6-5-5-5-5-6-6-6-6-5-5-5-5-6-6-6-6-10-10-10-10-8-8-8-8-|
|---------------------------------|----------------------------------||---------------------------------|----------------------------------||---------------------------------|----------------------------------||---------------------------------|----------------------------------||-7-------7-------7---7---6-6-6-6-|-7-------7-------7---7---6-6-6-6--||-5-5-5-5-5-5-5-5-5-5-5-5-4-4-4-4-|-5-5-5-5-5-5-5-5-5-5-5-5-4-4-4-4--|
|---------------------------------|---------------------------------||---------------------------------|---------------------------------||---------------------------------|---------------------------------||---------------------------------|---------------------------------||-7-------7-------7---7---6-6-6-6-|-7-------7-------7---7---6-6-6-6-||-5-5-5-5-5-5-5-5-5-5-5-5-4-4-4-4-|-5-5-5-5-5-5-5-5-5-5-5-5-4-4-4-4-|
|---------------------------------|---------------------------------||---------------------------------|---------------------------------||---------------------------------|---------------------------------||---------------------------------|---------------------------------||-7-------7-------7---7---6-6-6-6-|-7-------7-------7---7---6-6-6-6-||-5-5-5-5-5-5-5-5-5-5-5-5-4-4-4-4-|-5-5-5-5-5-5-5-5-5-5-5-5-4-4-4-4-|
|---------------------------------|------*||---------------------------------|------*||---------------------------------|------*||---------------------------------|------*||-7-------7-------7---7---6-6-6-6-|-7----*||-5-5-5-5-5-5-5-5-5-5-5-5-4-4-4-4-|-5----*|
Please rate this tab:
x1.0