Maylene And The Sons Of Disaster - Raised By The Tide tab version 1

Artist: Maylene And The Sons Of Disaster
Song: "Raised By The Tide"
Album: II
Record Label: Ferret Records

Tuning: Drop-D (DADGBE)

[0:00 - 0:36]|----------------------------------------------------||--------3-----------6--3---------3------------------||----------------------------------------------------||----------------------------------------------------||-0h3h5-----5h0-3h0--------0h3h5-----5h0-3h0---------||----------------------------------------------3p0---|
[0:36-0:55]|---------------------------------------------||---------------------------------------------||---------------------------------------------||---------------------5-3---------------------||--5-5-------3-5-3-5-------<5>----------------||-------3-5-----------------------------------|On the SECOND and FOURTH time through thisyou play the last note as a pinch harmonic
[0:56-1:13]|---------------------------------------------||---------------------------------------------||---------------------------------------------||--7---5----5---0-----------------------------||--5---3----5---0-----------------------------||-----------5---0-----------------------------|
[1:14-1:22]|----------------------------------------------------||--------3-----------6--3---------3------------------||----------------------------------------------------||----------------------------------------------------||-0h3h5-----5h0-3h0--------0h3h5-----5h0-3h0---------||----------------------------------------------3p0---|
[1:22-1:42]|----------------------------------------------------||----------------------------------------------------||----------------------------------------------------||----------------------------------------5-3---------||--------------------------------------------5-5-----||-3-0-0--3-0-0--3/5555555--3-0-0--3-0-0--------------|
[1:42-1:50]|---------------------------------------------||---------------------------------------------||---------------------------------------------||---------------------5-3---------------------||--5-5-------3-5-3-5-------<5>----------------||-------3-5-----------------------------------|
[1:51-2:09]|---------------------------------------------||---------------------------------------------||---------------------------------------------||--7---5----5---0-----------------------------||--5---3----5---0-----------------------------||-----------5---0-----------------------------|
[2:10-2:55]Break/Solo|--------------------------------------------------||--------------------------------------------------||--5p2---------------------------------------------||------3h5-3h5-------------3h5-5h6p5p3-0-0---------||--------------3-5----3h5------------------3-3/5---||--------------------------------------------------|
|----------4b------8h5-3---------------------------||------3b----------------6-3-6-1-1/3---------------||--2h5---------------------------------------------||--------------------------------------------------||--------------------------------------------------||--------------------------------------------------|
|--------------------------------------------------||--------------------------------------------------||--------------------------------------------------||--------------------------------------3-----------||-------3-3/5--3-----------------3-3/5---5-3-5~----||-0-3h5----------3h5p3-0~--0-3h5-------------------|
[2:55-END]|---------------------------------------------||---------------------------------------------||---------------------------------------------||--7---5----5---0-----------------------------||--5---3----5---0-----------------------------||-----------5---0-----------------------------|
Email me: untitled318@gmail.com if you have any questions regarding the tab or the band
Tap to rate this tab
 
# A B C D E F G H I J K L M N O P Q R S T U V W X Y Z