Megadeth – Moto Psycho Replace tab

MEGADETH :Moto Psycho:
From the album The World Needs A Hero

Here's the full song with solo's enjoy.
Opening riff played also through the verses

Riff 1:|------------------------------------------------||------------------------------------------------||------------------------------------------------||------------------------------------------------||----------------------------------1----3--1-----||-1-3333--1-3333--1-3333--1-3333-----3-----------|-------------------------------------------------| (-P.M-) (-P.M-) (-P.M-) (-P.M-) (-)
Riff 2: pre-chorus|----------------------|----------------------||----------------------|----------------------||----------------------|----------------------||----------------------|----------------------||--6666-6666-6666-6666-|-6666-6666-6666-6550--||----------------------|----------------------|
sl|----------------------|-----------------------||----------------------|-----------------------||----------------------|-----------------------||----------------------|------------------\7\7-||--3333-3333-3333-3333-|-3333-3333-3333-33\5\5-||----------------------|-----------------------| sl sl
SOLO 1: AL PITRELLI:
|----------------15---------|-------------------------------15-||-18b20~~~~~~-------18p15---|---20b23-(20)-18b20--18~~--18-----||---------------------------|----------------------------------||---------------------------|----------------------------------||---------------------------|----------------------------------||---------------------------|----------------------------------|
|-19p15----19p15----18----15h18p15----15----------------||-------18-------18----18----------18----18-17-15-------||-------------------------------------------------17p18-||-------------------------------------------------------||-------------------------------------------------------||-------------------------------------------------------|
|-15-------------------------------------------||----------------------------------------------||----18-17-15----17-15~------------------------||-------------17--------17-15-17~~\------------||----------------------------------------------||----------------------------------------------|
AL PITRELLI:
With Wah Wah|----------------------------------------------||-16-------------------16--------16------------||------15-----------------------------15-------||-----------17---15---------17-----------------||----------------------------------------------||----------------------------------------------|
|----------------------------------------------||-----------16---------16----------------------||---------------------------15-----------------||-17---15--------17--------------17---15-------||----------------------------------------------||----------------------------------------------|
|----------------------------------------------||----------------------------------------------||-17---15------------------------17---15-------||-----------17---15----17---17-----------------||----------------------------------------------||----------------------------------------------|
|----------------------------------------------||----------------------------------------------||-17-------------------18---15-----------------||------15---17---17--------------17---15-------||----------------------------------------------||----------------------------------------------|
ChorusRiff 3:|--------------------|-----------------|X4|---------------||--------------------|-----------------| |---------------||--------------------|-----------------| |---------3-----||-----------------3--|-----------3-----| |--5--4---3--3--||-----------------1--|-----------1-3---| |--5--4---1--3--||--3-333-333-333-----|--3-333-33---1---| |--3--2------1--|
(-----P.M-----) (--P.M---)
Played under the first 2 bars of the chorusWah Off X2|----------------------------------------------||----------------------------------------------||--12---------12---------12----------12--------||----------------------------------------------||----------------------------------------------||----------------------------------------------|
SOLO 2 DAVE MUSTAINE: Note:on the video Dave plays the first bars Up around the 17 fret.
With Wah Wah|-------------------------------------------------||-3h6p3-----3h6p3-----3-6p3-----6p3-3-6p3---6p3-3-||-------6b7-------6b7-------6b7-----------6-------||-------------------------------------------------||-------------------------------------------------||-------------------------------------------------|
|---5p3h5p3------------------------------------||-3---------6p5p3-5-6p5p3----------------------||-------------------------3---5p4p3---3~-------||---------------------------5-------5----------||----------------------------------------------||----------------------------------------------|
|--------15--------------------------------------||-----------18p15-18b20-18p15--------------------||--17b19----------------------17b18--18p17p15----||---------------------------------------------17-||------------------------------------------------||------------------------------------------------|
|-20-18-15-15----------------------------------||-------------18-15----------------------------||-------------------18-17-15-------------------||----------------------------17-16-15---13-----||----------------------------------------------||----------------------------------------------|
Well hope you enjoy the tab I'll redo some of my Other Megadeth tabs with solo's and stuff soon :) Andrew tabbed this that's me! Metalrules. andrew_mellor@talk21.com
Please rate this tab:
x1.0