Megasus - Red Lottery tab

-----------------------------------------------------------------
 Red Lottery - Megasus
-----------------------------------------------------------------
Tabbed by: Olin Clark
Email: olinclark@chartermi.net

www.megasus.lotsofnoise.com

Tuning: Drop B
B-F#-B-E-G#-C#

This Band is on guitar hero 2 and thats the only place i've ever seen or heard of them...

|------------------------------------------------------------||------------------------------------------------------------||------------------------------------------------------------||------------------------------------------------------------|x2|---5h6-5---------5-3---------------1h3-1--------------------||-0-------7-6-\-0-----6-5--3-5-3--0-------4-3--0-1-2-3-2-1-0-|
|--------------------------------------------------------------||--------------------------------------------------------------||--------------------------------------------------------------||------------6b------------------------------------------------||---5h6-5---------5-3--------------1h3-1-----------------------||-0-------7-6---0-----6-5--3-5-3-0-------4-3--0-1-2-3-2-1-0----|
|--------------------------------------------------------------||--------------------------------------------------------------||--------------------------------------------------------------||------------6b------------------------------------------------||---5h6-5----6b---5-3--------------1h3-1-----------------------||-0-------7-6---0-----6-5--3-5-3-0-------4-3--0-1-2-3-2-1-0----|
|-------------------------------------------------------------||-------------------------------------------------------------||-------------------------------------------------------------||------------6/-----------------------------------------------||---5h6-5---------5-3--------------1h3-1----------------------||-0-------7-6---0-----6-5--3-5-3-0-------4-3--0-1-2-3-2-1-0---|
|------------------------------------------------------------||------------------------------------------------------------||------------------------------------------------------------||----------6b------------------------------------------------||---6-5---------5-3--------------1h3-1-----------------------||-0-----7-6---0-----6-5--3-5-3-0-------4-3--0-1-2-3-2-1-0----|
|----------------------------------------------------------------||----------------------------------------------------------------||----------------------------------------------------------------||--------------6/------------------------------------------------||---5h6-5---------5-3--------------1h3-1-------------------------||-0-------7-6---0-----6-5--3-5-3-0-------4-3--0-1-2-3-2-1-0------|
|--------------------------------------------------------------||--------------------------------------------------------------||--------------------------------------------------------------||-------------6b-----------------------------------------------||---5h6-5---------5-3--------------1h3-1-----------------------||-0-------7-6---0-----6-5--3-5-3-0-------4-3--0-1-2-3-2-1-0----|
|-------------------------------------------------------------||-------------------------------------------------------------||-------------------------------------------------------------||-3-0000005-0000007-000000-333-555-66-------------------------|x8|-3-0000005-0000007-000000-333-555-66-------------------------||-3-0000005-0000007-000000-333-555-66-------------------------|
|-----------------------------------------------------------||-----------------------------------------------------------||-----------------------------------------------------------||-3-0-0-0-0-0-00-5-0-0-0-0-0-00-7-0-0-0-0-0-0-00-333-555-66-|x2|-3-0-0-0-0-0-00-5-0-0-0-0-0-00-7-0-0-0-0-0-0-00-333-555-66-||-3-0-0-0-0-0-00-5-0-0-0-0-0-00-7-0-0-0-0-0-0-00-333-555-66-|
|-----------------------------------------------------------||-----------------------------------------------------------||-----------------------------------------------------------||-3-0-0-0-5-0-0-0-7-0-0-0-333-555-66------------------------||-3-0-0-0-5-0-0-0-7-0-0-0-333-555-66------------------------|x2|-3-0-0-0-5-0-0-0-7-0-0-0-333-555-66------------------------|
Guitar Sologuitar 1|-----------------| |--------------------||-----------------| |--------------------||-----------------| |--------------------||-10p9----9--10p9-| |-10p9----9--10p9~---||------10---------|x2|------10------------||-----------------| |--------------------|
|---------------------------------------------------------------||---------------------------------------------------------------||---------------------------10p9-10p9----9-9b(10)r-9------------||-10p9----9--10p9-10p9----9-----------10------------------------||------10--------------10---------------------------------------||---------------------------------------------------------------|
Guitar 2|----------------------------------------------------------||----------------------------------------------------------||-2222222222222222-----------------------------------------||-0000000000000000--repeat this chord----------------------||-0000000000000000-----------------------------------------||-0000000000000000-----------------------------------------|
Guitar 1|---------------------------------------------------------------||---------------------------------------------------------------||---------------------------------------------------------------||--10-----------9-----------------------------------------------||--8------------7-------a few times-----------------------------||---------------------------------------------------------------|
|-----------------------------------------------------------------||------------------------------6h7p6h7p6h7p6h7p6h7p6/-------------||----------------5h6p5h6p5h6p4------------------------------------||-4h5p4h5p4h5p4---------------------------------------------------||-----------------------------------------------------------------||-----------------------------------------------------------------|
|---------------------------------------------------------------||---------------------------------------------------------------||---------------------------------------------------------------||-------2b(3)2--------------------------------------------------||--------------3-2-4-3------------------------------------------||-2-3-2----------------5-3-1------------------------------------|
|-----------------------------------------------------------------||-----------------------------------------------------------------||-----------------------------------------------------------------||-----------------------------------------------------------------||--------------3-2-4-3--------------------------------------------||-2-3-2----------------5-3-1--------------------------------------|
|---------------------------------------------------------------||---------------------------------------------------------------||---------------------------------------------------------------||-------2b(3)2--------------------------------------------------||--------------3-2-4-3------------------------------------------||-2-3-2----------------5-3-1------------------------------------|
|-------------------------------------------------------------||-------------------------------------------------------------||-------------------------------------------------------------||-------------------------------------------------------------||---5h6-5--------5-3---------------1h3-1----------------------||-0------7-6-\-0-----6-5--3-5-3--0-------4-3--0-1-2-3-2-1-0---|
|-------------------------------------------------------------||-------------------------------------------------------------||-------------------------------------------------------------||-------------------------------------------------------------||---5h6-5--------5-3---------------1h3-1----------------------||-0------7-6-\-0-----6-5--3-5-3--0-------4-3--0-1-2-3-2-1-0---| + solo starts here
SOLO|---------------------------------------10----10---10----10------||-18-15-13-15---18b(19)r-p15-13h15p13-13---13---13----13---------||----------------------------------------------------------------||----------------------------------------------------------------||----------------------------------------------------------------||----------------------------------------------------------------|
|---10----10----10----10----10----10----10----10----10----10----||-13---13----13----13----13----13----13----13----13----13-------||---------------------------------------------------------------||---------------------------------------------------------------||---------------------------------------------------------------||---------------------------------------------------------------|
|----10---------------------------------------------------------||-13-----------------------10~~10~~10~~10~~~~/------------------||---------------------------------------------------------------||---------------------------------------------------------------||---------------------------------------------------------------||---------------------------------------------------------------|
|---------------------------------------------------------------||-----14~~-14~--14~-14~-14~-14~-/-------------------------------||---------------------------------------------------------------||---------------------------------------------------------------||---------------------------------------------------------------||---------------------------------------------------------------|
|---------------------------------------------------------------||---------------------------------------------------------------||-8-6-8-6-8-6-10-8-6~~------------------------------------------||---------------------------------------------------------------||---------------------------------------------------------------||---------------------------------------------------------------|____________________________________________________________________
RHYTHM plays|-------------------------------------------------------------||-------------------------------------------------------------||-------------------------------------------------------------||-----------6b------------------------------------------------||---5h6-5--------5-3--------------1h3-1-----------------------||-0------7-6---0-----6-5--3-5-3-0-------4-3--0-1-2-3-2-1-0----|
|--------------------------------------------------------------||--------------------------------------------------------------||--------------------------------------------------------------||------------6/------------------------------------------------||---5h6-5---------5-3--------------1h3-1-----------------------||-0-------7-6---0-----6-5--3-5-3-0-------4-3--0-1-2-3-2-1-0----|____________________________________________________________________
Both guitars|---------------------------------------------------------------||---------------------------------------------------------------||---------------------------------------------------------------||-0-------------------------------------------------------------||-0------------------0------------------------------------------||-0------------------0------------------------------------------|
|---------------------------------------------------------------||---------------------------------------------------------------||---------------------------------------------------------------||---------------------------------------------------------------||---------------------------------------------------------------||-0-1-2-3-2-1-0-0----0-1-2-3-2-1-0-0-1-2-3-2-1-0-0-1-2-3-2-1-0--|
|---------------------------------------------------------------||---------------------------------------------------------------||---------------------------------------------------------------||---------------------------------------------------------------||---------------------------------------------------------------||-0-1-2-3-2-1-0-0-1-2-3-2-1-0-1-2-3-2-1-0-1-2-3-2-1-0-1-2-3-2-1-|
|---------------------------------------------------------------||---------------------------------------------------------------||---------------------------------------------------------------||-------------------------------------------------0-------------||-------------------------------------------------0-------------||-0-1-2-3-2-1-0-1-2-3-2-1-0-1-2-3-2-1-0-1-2-3-2-1-0-------------|
| / slide up | \ slide down | h hammer-on | p pull-off | ~ vibrato | + harmonic
Tap to rate this tab
 
# A B C D E F G H I J K L M N O P Q R S T U V W X Y Z