Mekaal Hasan Band - Adholan tab

Song: Adholan
Artist: Mekaal Hassan Band

(copy paste the entire text in note pad to get tabs in proper alignment)


(flute part)

e--------------------------------|b--------------------------------|g---9-10-12-7~~--9-10-12-9h10~~--|d--------------------------------|a--------------------------------|e--------------------------------|
e-------------------------------------|b-------------------------------------|g---9-10-15-7~~--9-10-12-9h10~~12-----|d-------------------------------------|a-------------------------------------|e-------------------------------------|
Intro: (i have tabbed this part by watching the video, so this part is exactly correct (hope fully))
-6-5-3-6-5------------------------|------------6-8-10-8--3-5-6-5-3\2-|----------------------------------|----------------------------------|----------------------------------|----------------------------------|
-6-5-3-6-5---------------------|------------6-8-10-8--3-5-6-5~-|-------------------------------|-------------------------------|-------------------------------|-------------------------------|
-6-5-3-6-5------------------------|------------6-8-10-8--3-5-6-5-3\2-|----------------------------------|----------------------------------|----------------------------------|----------------------------------|
--------------------------------------------------------|-2-3-2--5-6/10-8-11-10--6-8-10-8--3-5-6-5~--6-5-3-6-5~~-|--------------------------------------------------------|--------------------------------------------------------|--------------------------------------------------------|--------------------------------------------------------|
Middle:
------------------------------------------------------6-5\3--|-------------------------------------10-8h10-8---------------|-6-7~~-9-10-9-7-10h12p10-9-7~~--9-10-----------10-9\7--------|-------------------------------------------------------------|-------------------------------------------------------------|-------------------------------------------------------------|
------------------------------------------------|-8h10---------------10---10\11-------------10---|------9-7~~--7h9-10----9-------9\7--7/9-10----9-|------------------------------------------------|------------------------------------------------|------------------------------------------------|
.................................. (this part is not complete and not 100% correct)
---------------------------------------------|---------------------------------------------|-9-10-12-10p9-6-7~--9-10-9-7-10h12-10\9\7~~--|---------------------------------------------|---------------------------------------------|---------------------------------------------|
-----------------------6-5\3--|------10-8h10-8---------------|-9-10-----------10-9\7--------|------------------------------|------------------------------|------------------------------|
------------------------------------------------|-8h10---------------10---10\11-------------10---|------9-7~~--7h9-10----9-------9\7--7/9-10----9-|------------------------------------------------|------------------------------------------------|------------------------------------------------|
.................................. (this part is not complete and not 100% correct)
-----------------------------------------------------|-7p6h8p6h8p6h8p6h8\10p8h10\11-8h10p8h10\11-9\10-5\2~-|-----------------------------------------------------|-----------------------------------------------------|-----------------------------------------------------|-----------------------------------------------------|
(this part is not complete but correct) Tabbed by: UMAR SHARIF chiliblast@hotmail.com
Tap to rate this tab
 
# A B C D E F G H I J K L M N O P Q R S T U V W X Y Z