Memphis May Fire - North Atlantic Vs North Carolina tab version 2

My first full tab, so go easy on me. If theres any suggestions to fix where i may
have messed up just leave a comment.

---------------------------------------------| ------|---------------------------------------------| ------|---------------------------------------------|(2x)------|------------7h8h7/6h7------------------------| 9~~~~-|7--10-5h6/7-----------7--10-5h6/7------------| ------|----------------------------------77-1010-99-| ------|
** * * **Oh how dare you...-----------------------------------------|-----------------------------------------|-----------------------------------------|2--2-2^2-2------------2--2-2^2-----------|2--2-2^2-2------------2--2-2^2-----------|-----------6h8h6h86h8----------4h6h4/3h4-|
* *----------------------------------|----------------------------------|----------------------------------|2--2-2^2-2------------7-777788888-|2--2-2^2-2------------7-777788888-|-----------6h8h6h8h68-0-000000000-|
-----------------------------------------|-----------------------------------------|-----------------------------------------|2--2-2^2-2------------2--2-2^2-----------|2--2-2^2-2------------2--2-2^2-----------|-----------6h8h6h86h8----------4h6h4/3h4-|
* *----------------------------------|----------------------------------|----------------------------------|2--2-2^2-2------------7-777788888-|2--2-2^2-2------------7-777788888-|-----------6h8h6h8h68-0-000000000-|
----------0~----------------|----------0~----------------|----------0~----------------|2-2-2-2^2---2-0^0-2-2-0-202-|2-2-2-2^2---2-0^0-2-2-0-202-|----------------------------|
-------------------5h1----------------|----------5h6h5h3h5-------------------|--------------------------------------|2-2-2^2-2-------------------2-0-------|2-2-2^2-2---------------------2-0-202-|--------------------------------------|
----------------------------------------------------------|----------------------------------------------------------|----------------------------------------------------------|2-2-2^2-2-12-12-12-12-12-12-12-12-12-12-12-12-12-12-12-12-|2-2-2^2-2-10-10-10-10-10-10-10-10-10-10-10-10-10-10-10-10-|----------------------------------------------------------|
----------------------------------------------------------|----------------------------------------------------------|----------------------------------------------------------|2-2-2^2-2-12-12-12-12-12-12-12-12-12-12-12-12-12-12-12-12-|2-2-2^2-2-10-10-10-10-10-10-10-10-10-10-10-10-10-10-10-10-|----------------------------------------------------------|
I wanna see the fire ignite...--------------------------------------------|--------------------------------------------|--------------------------------------------|5-5-5-5-5-5-7-7-7-7-7-7-2-2-2-2-0-0-0-0-0-0-|3-3-3-3-3-3-5-5-5-5-5-5-2-2-2-2-0-0-0-0-0-0-|--------------------------------------------|
* * * * * *--------------------------------77777777-|--------------------------------77777777-|--------------------------------77777777-|5-5-5-5-5-5-7-7-7-7-7-7-2-2-2-2----------|3-3-3-3-3-3-5-5-5-5-5-5-2-2-2-2----------|-----------------------------------------|
--------------------------------------------|--------------------------------------------|--------------------------------------------|5-5-5-5-5-5-7-7-7-7-7-7-2-2-2-2-0-0-0-0-0-0-|3-3-3-3-3-3-5-5-5-5-5-5-2-2-2-2-0-0-0-0-0-0-|--------------------------------------------|
* * * * * *-------------------------------------------|-------------------------------------------|-------------------------------------------|5-5-5-5-5-5-7-7-7-9-9-9--------------------|3-3-3-3-3-3-5-5-5-7-7-7--------------------|-------------------------------------------|
-------------------------------------------|-------------------------------------------|-------------------------------------------|2-0--------20----20----20---22-------------|----202-202--2020--2020--20-22-------------|-------------------------------------------|
-----------------------------------------|-----------------------------------------|-----------------------------------------|2-0--------20----20----20----------------| X2----202-202--2020--2020--20--------------|-----------------------------------------|
---------------------------------------------|---------------------------------------------|---------------------------------------------|------------7h8h7/6h7------------------------|7--10-5h6/7-----------7--10-5h6/7------------|----------------------------------77-1010-99-|
** * * **----------------------------------------------------------------|----------------------------------------------------------------|----------------------------15h14h15h14h15h14h15h14h15h14h15h14-|----------------------------------------------------------------|7-9-10-9-9-10-12-10-12-14-12------------------------------------|----------------------------------------------------------------|
-----------------------------------------|-----------------------------------------|-----------------------------------------|2--2-2^2-2------------2--2-2^2-----------|2--2-2^2-2------------2--2-2^2-----------|-----------6h8h6h86h8----------4h6h4/3h4-|
* *----------------------------------|----------------------------------|----------------------------------|2--2-2^2-2------------7-777788888-|2--2-2^2-2------------7-777788888-|-----------6h8h6h8h68-0-000000000-|
-----------------------------------------|-----------------------------------------|-----------------------------------------|2--2-2^2-2------------2--2-2^2-----------|2--2-2^2-2------------2--2-2^2-----------|-----------6h8h6h86h8----------4h6h4/3h4-|
* *----------------------------------|----------------------------------|----------------------------------|2--2-2^2-2------------7-777788888-|2--2-2^2-2------------7-777788888-|-----------6h8h6h8h68-0-000000000-|
----------0~----------------|----------0~----------------|----------0~----------------|2-2-2-2^2---2-0^0-2-2-0-202-|2-2-2-2^2---2-0^0-2-2-0-202-|----------------------------|
-------------------5h1----------------|----------5h6h5h3h5-------------------|--------------------------------------|2-2-2^2-2-------------------2-0-------|2-2-2^2-2---------------------2-0-202-|--------------------------------------|
---------------------------------------------------------|---------------------------------------------------------|---------------------------------------------------------|2-2-2^2-2-12-12-12-12-12-------------------------------0-|2-2-2^2-2-10-10-10-10-10-12h5h8h12h5h8h12h5h8h12h5h8h12--|---------------------------------------------------------|
----------------------------------------------------------|----------------------------------------------------------|----------------------------------------------------------|2-2-2^2-2-12-12-12-12-12-12-12-12-12-12-12-12-12-12-12-12-|2-2-2^2-2-10-10-10-10-10-10-10-10-10-10-10-10-10-10-10-10-|----------------------------------------------------------|
I wanna see the fire ignite...--------------------------------------------|--------------------------------------------|--------------------------------------------|5-5-5-5-5-5-7-7-7-7-7-7-2-2-2-2-0-0-0-0-0-0-|3-3-3-3-3-3-5-5-5-5-5-5-2-2-2-2-0-0-0-0-0-0-|--------------------------------------------|
* * * * * *--------------------------------77777777-|--------------------------------77777777-|--------------------------------77777777-|5-5-5-5-5-5-7-7-7-7-7-7-2-2-2-2----------|3-3-3-3-3-3-5-5-5-5-5-5-2-2-2-2----------|-----------------------------------------|
--------------------------------------------|--------------------------------------------|--------------------------------------------|5-5-5-5-5-5-7-7-7-7-7-7-2-2-2-2-0-0-0-0-0-0-|3-3-3-3-3-3-5-5-5-5-5-5-2-2-2-2-0-0-0-0-0-0-|--------------------------------------------|
* * * * * *-------------------------------------------|-------------------------------------------|-------------------------------------------|5-5-5-5-5-5-7-7-7-9-9-9--------------------|3-3-3-3-3-3-5-5-5-7-7-7--------------------|-------------------------------------------|
---------------------------------------------------------------15-----------|----------------------------------------------------------------------------|------15-13-10-13-14-13~------------15-13-10-15-13-11-10-13-15--------------|12-14-------------------12h14h12h14-----------------------------------------|----------------------------------------------------------------------------|----------------------------------------------------------------------------|
letting go is easier...-----------------------------------------------------------------------------|-----------------------------------------------------------------------------|-----------------------------------------------------------------------------|7----5----3----2----7----8----10----12----14----1818181818181818181818181818-|9----7----5----2----9----10---12----14----16----2020202020202020202020202020-|-----------------------------------------------------------------------------|
-------------------------------|-------------------------------|-------------------------------|2~0h2-70^07-70^7h8-------------|2~0h2-70^07-70^7h8-------------|-------------------------------|
---------------0~^0---|---------------0~^0---|---------------0~^0---|2~0h2-0^0^0^0---------|2~0h2-0^0^0^0---------|----------------------|
-------------------------------|-------------------------------|-------------------------------|2~0h2-70^07-70^7h8-------------|2~0h2-70^07-70^7h8-------------|-------------------------------|
---------------0~^0---|---------------0~^0---|---------------0~^0---|2~0h2-0^0^0^0---------|2~0h2-0^0^0^0---------|----------------------|
----------------------|----------------------|----------------------|1-0-1-2---------------|1-0-1-2---------------|----------------------|
* palm mute / slide h hammer
Tap to rate this tab
 
# A B C D E F G H I J K L M N O P Q R S T U V W X Y Z