Metallica - Broken Beat And Scarred tab

Broken, Beat & Scarred
Tuning: Standard eBGDAE

|------------------------||------------------------||------------------------||------------------------||------------2-2--2------||--/6\--/6\--0-0--0------|
| . . || ||------------------------||------------------------||------------------------||------------------------||------------2-2--2-2-2--||--/6\--/6\--0-0--0-0-0--| . . . .
|------------|---------------------------||------------|---------------------------||------------|---------------------------| The notes in this riff|------------|----------7----------------| get a layered octave after|------------|-------/7----8-7\5-7h8p7~--| a few repeats.|--/6\--/6\--|--0-0----------------------|
| || ||------------|----------|----------------||------------|----------|----------------||------------|----------|----------------| |------------|----------|----------------| |------------|--2-2-2-2-|-2-2-2-2-2-2-2--| |--/6\--/6\--|--0-0-0-0-|-0-0-0-0-0-0-0--| . . . . . . . . . . .
|------------------------------------------------------------------||------------------------------------------------------------------||-----(7)--------(7)---(9)---(10)----------(9)---------5-----------| |----------------------------------------------------7-------------||------5----------5-----7-----8-------------7------5---------------||------------------------------------------------------------------|
| Brackets contain octaved layer || ||------------------------------------------------------------------||------------------------------------------------------------------||---------------------------------------------------------------5--||------5-----5-------------5-----7-----8-------------7--------7----||------5-----5-------------5-----7-----8-------------7------5------||--0-0-3-0-0-3-0-0-0-0-0-0-3-0-0-5-0-0-6-6-6-6-6-6-6-5-5-5---------| . . . . . . . . . . . . . . . .
|-------------------|-------------------||-------------------|-------------------| |-------------------|-------------------| |------3-----3------|--2-2-----7--------| |------3-----3------|--2-2--/7---8-7\5--| |--0-0-1-0-0-1-0-0--|--0-0--------------| . . . . . .
|-------------------------------------------------------|---------------||-------------------------------------------------------|---------------||-------------------------------------------------------|---------------||-------------------------------------------------------|---------------||-------------------------------------------------------|---------------||--15h17p15\14\12-000-12-12-000-12-000-12-12-000-12-12--|--15-15-15-15--| ... ... ... ...
(You rise, you fall, you're down...)|-------------------------------------------||-------------------------------------------||-------------------------------------------||-------------------------------------.-----| [(.) Staccato'd note]|---------------2-----2-2-----2-----2-2--2--||--3333-3h5p3/2-0-000-0-0-0-0-0-0-0-0-0--0--| .... ... . . . .
(Rise, fall, down...)|--------|----------------------------||--------|----------------------------| |--------|----------------------------||--------|--2---/---10---\---5--/7\5--||--------|--2---/---10---\---5--/7\5--| |--3333--|--0---/---8----\---3--/5\3--| ....
(Through black days...)|-----------------------------------------------------------------------||-----------------------------------------------------------------------||-----------------------------------------------------------------------||------5-----5-------------5-----7-----8-------------7-----3-----3------||------5-----5-------------5-----7-----8-------------7-----3-----3------||--0-0-3-0-0-3-0-0-0-0-0-0-3-0-0-5-0-0-6-6-6-6-6-6-6-5-0-0-1-0-0-1-0-0--| . . . . . . . . . . . . . . . . . . . . . . . . . .
|---------------------------------------------------||---------------------------------------------5-----||---------------------------------------------------||----------7-----------------8-7h8p7--------7-----x-||--2-2--/7---8-7\5---2-2--/7---------8p7--5-------x-||--0-0---------------0-0--------------------------x-|
(Breaking your teeth on the...)|------|----------------------------------------------------------------||------|----------------------------------------------------------------||------|----------------------------------------------------------------||--9\--|----------------------------------------------------------------||--7\--|-------------5h7-77-5------------5h7-77-9------------5h7-77-10--||--0---|--0000000000-0-0-00-3-0000000000-0-0-00-7-0000000000-0-0-00-8---| .......... .......... ..........
|----------|----------------------|---------||----------|----------------------|------5--||----------|----------------------|---------||----------|----------------------|----7----||--5h7-77--|--------7--------8----|--5------||--0-0-00--|--0-5-6----0-5-6------|---------|
(But we die hard..)|-------------------|-------------------||-------------------|-------------------| |-------------------|-------------------| |------3-----3------|--2-2-----7--------| |------3-----3------|--2-2--/7---8-7\5--| |--0-0-1-0-0-1-0-0--|--0-0--------------| . . . . . .
|-------------------------------------------------------|---------------||-------------------------------------------------------|---------------||-------------------------------------------------------|---------------||-------------------------------------------------------|---------------||-------------------------------------------------------|---------------||--15h17p15\14\12-000-12-12-000-12-000-12-12-000-12-12--|--15-15-15-15--| ... ... ... ...
(The dawn, the death, the fight...)|-------------------------------------------||-------------------------------------------||-------------------------------------------||-------------------------------------.-----||---------------2-----2-2-----2-----2-2--2--||--3333-3h5p3/2-0-000-0-0-0-0-0-0-0-0-0--0--| .... ... . . . .
(Dawn, death, fight...)|--------|----------------------------||--------|----------------------------| |--------|----------------------------| |--------|--2---/---10---\---5--/7\5--||--------|--2---/---10---\---5--/7\5--| |--3333--|--0---/---8----\---3--/5\3--| ....
(They scratched me, They scraped...)|-----------------------------------------------------------------------||-----------------------------------------------------------------------||-----------------------------------------------------------------------||------5-----5-------------5-----7-----8-------------7-----3-----3------||------5-----5-------------5-----7-----8-------------7-----3-----3------||--0-0-3-0-0-3-0-0-0-0-0-0-3-0-0-5-0-0-6-6-6-6-6-6-6-5-0-0-1-0-0-1-0-0--| . . . . . . . . . . . . . . . . . . . . . . . . . .
|---------------------------------------------------||---------------------------------------------5-----||---------------------------------------------------||----------7-----------------8-7h8p7--------7-----x-||--2-2--/7---8-7\5---2-2--/7---------8p7--5-------x-||--0-0---------------0-0--------------------------x-|
(Breaking your teeth on the...)|------|----------------------------------------------------------------||------|----------------------------------------------------------------||------|----------------------------------------------------------------||--9\--|----------------------------------------------------------------||--7\--|-------------5h7-77-5------------5h7-77-9------------5h7-77-10--||--0---|--0000000000-0-0-00-3-0000000000-0-0-00-7-0000000000-0-0-00-8---| .......... .......... ..........
(Breaking your life, broken...)|----------|----------------------|---------|---------------------||----------|----------------------|------5--|---------------------||----------|----------------------|---------|---------------------||----------|----------------------|----7----|------3-----3-----2--||--5h7-77--|--------7----------8--|--5------|------3-----3-----2--||--0-0-00--|--0-5-6------0-5-6----|---------|--0-0-1-0-0-1-0-0-0--| . . . . . .
Rhythm for the solo:|-------------------------|-------------------------||-------------------------|-------------------------||-------------------------|-------------------------||-------------------------|-------------------------||-------------------------|-------------------------||--0-0-0-6-0-0-0-6-6-6-5--|--0-0-0-6-0-0-0-6-6~--5--| . . . . . . . . . . .
|-----------|---------------------||-----------|---------------------||-----------|---------------------||-----------|--------3-----3------||--------6--|--------3-----3------||--0-0-0----|--0-0-0-1-0-0-1-0-0--| . . . . . . . . . .
|----------------------------------||----------------------------------||----------------------------------||----------------------------------||----5~-4----5~-4----4~-3----3~-2--||--4-------4-------4-------4-------|
|----------------------------------||----------------------------------||----------------------------------||----------------------------------||----7~-6----7~-6----6~-5----5~-4--||--6-------6-------6-------6-------|
|-----------------|---------------------------------|---------------------||-----------------|---------------------------------|---------------------||-----------------|---------------------------------|---------------------||-----------------|--------8-7-------7-6-------6-5--|---------------------||-----------------|--------8-7-------7-6-------6-5--|--x\---(Pick-Slide)--||--0-0-0-0-0-0-0--|--0-0-0-6-5-0-0-0-5-4-0-0-0-4-3--|--x\-----------------| . . . . . . . . . . . . . . . .
|-------------------------|-------------------------|-----------||-------------------------|-------------------------|-----------||-------------------------|-------------------------|-----------||-------------------------|-------------------------|-----------||--------3-------3-3-3-2--|--------3-------3-3~--2--|--------3--||--2-2-2---2-2-2----------|--2-2-2---2-2-2----------|--2-2-2----| . . . . . . . . . . . . . .
|-------------------------------------------------------------------------------------||-------------------------------------------------------------------------------------||-------------------------------------------------------------------------------------||--------5-----5-----5-----5-------------5-----7-----8-------------7-----3-----3------||--------5-----5-----5-----5-------------5-----7-----8-------------7-----3-----3------||--2-2-2-3-2-2-3-2-2-3-2-2-3-2-2-2-2-2-2-3-3-3-5-5-5-6-6-6-6-6-6-6-5-1-1-1-1-1-1-0-0--| . . . . . . . . . . . . . . . . . . . . . . . . . . . . . . .
|---------------------------------------------||---------------------------------------------||---------------------------------------------||--2-2----------------2-2---------------------||--2-2-------------7--2-2--------------7-8----||--0-0--0-0-0-0-/5----0-0--0-0-0-0-/5------6--| . . . . . . . .
(Breaking your teeth on the...)|------|----------------------------------------------------------------||------|----------------------------------------------------------------||------|----------------------------------------------------------------||--9\--|----------------------------------------------------------------||--7\--|-------------5h7-77-5------------5h7-77-9------------5h7-77-10--||--0---|--0000000000-0-0-00-3-0000000000-0-0-00-7-0000000000-0-0-00-8---| .......... .......... ..........
|----------|----------------------||----------|----------------------||----------|----------------------||----------|----------------------||--5h7-77--|--------7----------8--||--0-0-00--|--0-5-6------0-5-6----|
|-----------------------------------------------------------------------||-----------------------------------------------------------------------||-----------------------------------------------------------------------||------5-----5-------------5-----7-----8-------------7-----3-----3------||------5-----5-------------5-----7-----8-------------7-----3-----3------||--0-0-3-0-0-3-0-0-0-0-0-0-3-0-0-5-0-0-6-6-6-6-6-6-6-5-0-0-1-0-0-1-0-0--| . . . . . . . . . . . . . . . . . . . . . . . . . .
(We die hard...)|---------------------------------------------||---------------------------------------------||---------------------------------------------||--2-2----------------2-2---------------------||--2-2-------------7--2-2--------------7-8----||--0-0--0-0-0-0-/5----0-0--0-0-0-0-/5------6--| . . . . . . . .
|-----------------------------------------------------------------------||-----------------------------------------------------------------------||-----------------------------------------------------------------------||------5-----5-------------5-----7-----8-------------7-----3-----3------||------5-----5-------------5-----7-----8-------------7-----3-----3------||--0-0-3-0-0-3-0-0-0-0-0-0-3-0-0-5-0-0-6-6-6-6-6-6-6-5-0-0-1-0-0-1-0-0--| . . . . . . . . . . . . . . . . . . . . . . . . . .
|---------------------------------------------|--------------------------||---------------------------------------------|--------------------------||---------------------------------------------|--------------------------||--2-2----------------2-2---------------------|--2-2----------------2-2--||--2-2-------------7--2-2--------------7-8----|--2-2-------------7--2-2--||--0-0--0-0-0-0-/5----0-0--0-0-0-0-/5------6--|--0-0--0-0-0-0-/5----0-0--| . . . . . . . . . . . .
Tap to rate this tab
 
# A B C D E F G H I J K L M N O P Q R S T U V W X Y Z