Metallica - Dyers Eve tab

Metallica  Dyers Eve

Finally Found a Tab with the solo intact, so enjoy!

E|------------------|-----------|---------|---------|----------|B|------------------|-----------|---------|---------|----------|G|------------------|-----------|---------|---------|----------|D|------------------|--2----3---|--2----5-|-2----3--|--2---2-3-|A|-2-3-2-3-2-3-2-3--|--2----3---|--2----5-|-2----3--|--2---2-3-|E|------------------|--0----1---|--0----3-|-0----1--|--0---0-1-| PM.............|
|---------|---------|----------|-----------------||---------|---------|----------|-----------------||---------|---------|----------|-----------------||--2----3-|--2----5-|--2----3--|--2--------------||--2----3-|--2----5-|--2----3--|--2--------------||--0----1-|--0----3-|--0----1--|--0--0--1--0--1--| PM........|
Rhy Fig 1 end Rhy Fig 1||-------------------|-------------|------------------|---------------||||-------------------|-------------|------------------|---------------||||o------------------|-------------|------------------|--------------o||||o--2-------3-------|--2-------5--|--2-------3-------|--2-----------o||||---2-------3-------|--2-------5--|--2-------3-------|--2------------||||---0--0-0--1--0-0--|--0--0-0--3--|--0--0-0--1--0-0--|--0--0-1-0-1---|| PM.| PM.| PM.| PM.| PM.| PM....|
Tempo=194 Rhy Fig 2|---------|---------|---------------------------|----------------------------||---------|---------|---------------------------|----------------------------||---------|---------|---------------------------|----------------------------||-2-------|-(2)-----|-4--------------3\4--4--4--|-----------------5\4--4--4--||-2-------|-(2)-----|-2--2-3-2-3-2-3-5\2--0--2--|-2-3-2-3-2-3-2-3-3\2--0--2--||-0-------|-(0)-----|---------------------------|----------------------------| PM.............| PM.............|
|----------------------------|---------------------------------||----------------------------|---------------------------------||----------------------------|---------------------------------||-----------------5\4--4--4--|-------------------------5---4---||-2-3-2-3-2-3-2-3-3\2--0--2--|-2-3-2-3-2-3-2-3-3---2-----------||----------------------------|---------------------------------| PM..............| PM............................|
|---------------------------|---------------------------||---------------------------|---------------------------||---------------------------|---------------------------||-4--------------5\4--4--4--|-----------------3\2----4--||-2--2-3-2-3-2-3-3\2--0--2--|-2-3-2-3-2-3-2-3-5\4----0--||---------------------------|---------------------------| PM.........| PM.............|
end Rhy Fig 2|---------------------------|------------------------------||---------------------------|------------------------------||---------------------------|------------------------------||-4--------------3\2--4--4--|------------------------5--4--||-2--2-3-2-3-2-3-5\4--0--2--|-2-3-2-3-2-3-2-3--3--2--------||---------------------------|------------------------------| PM.........| PM.........................|
|--------------------|-------------------|---------------------------||--------------------|-------------------|---------------------------||--------------------|-------------------|---------------------------||--------------------|-------------------|-4-------------------------||-2---5-5-2----3-3-2-|----5-5-2----5-5-2-|-2--2-3-2-3-2-3-0--2--0--2-||-0---3-3-0----5-5-0-|----3-3-0----3-3-0-|---------------------------| PM....................|
|------------------------|------------------------|-----------------------||------------------------|------------------------|-----------------------||------------------------|------------------------|-7----------5----------||-5----5--5--4--4--------|-2-----------2----------|-7----------5----------||-3----3--3--2--2--------|-2-----------2----------|-5----------3----------||------------------3p2p0-|-0----3p2p0--0----3p2p0-|------3p2p0------3p2p0-| PM........|
|---------------------------|------------------------|-----------|-----------||---------------------------|------------------------|-----------|-----------||---------------------------|------------------------|-----------|-7----5----||-4-------------------------|-5----5--5--4--4--------|-9----9----|-7----5----||-2--2-3-3-3-3-3-0--2--0--2-|-3----3--3--2--2--------|-7----7----|-5----3----||---------------------------|------------------3p2p0-|-0----0----|-----------| PM....................| PM........|
|----------------------------|---------------------------||----------------------------|---------------------------||----------------------------|---------------------------||-4--------------------------|-5-------------------------||-2--2-3-2-3-2-3-0--2--0--2--|-3----3-3-3-3-3p2p0--2p0---||----------------------------|-------------------------3-| PM....................| PM..................|
Play Rhy Fig 2 once, then:
|--------------------||--------------------||--------------------||-2----2--2--2----2--||-2----2--2--2----2--||-0----0--0--0----0--|
S/SVerses|---------------------|------------|-------------------|--------------------||---------------------|------------|-------------------|--------------------||---------------------|------------|-------------------|-------------4---5--||--4------------------|--5---------|--7----------------|--2----------4---5--||--4------------------|--5---------|--7----------------|--2----------2---3--||--2------------------|--3---------|--5----------------|--0-----------------| Dear Mother,Dear Father What is this hell you have put me through
|------------------|-----------|-------------------|-----------------||------------------|-----------|-------------------|-----------------||------------------|-----------|-------------------|-----------------||--4---------------|--5--------|--2----------------|--7--------2--5--||--4---------------|--5--------|--2----------------|--7--------2--5--||--2---------------|--3--------|--0----------------|--5--------0--3--| Believer, deceiver Day in, Day out, live my life for you
to Coda|----------------------|-------------|-------------------|--------------------||----------------------|-------------|-------------------|--------------------||----------------------|--7----------|-------------------|--------------------||--4-------------------|--7----------|--7----------------|--5-----------------||--4-------------------|--5----------|--7----------------|--5-----------------||--2-------------------|-------------|--5----------------|--3-----------------| Pushed onto me whats wrong or right Hidden from this thing that they call life
|------------------|---------------------------|----------------------------||------------------|---------------------------|----------------------------||--5---4--5-5------|---------------------------|----------------------------||--5---4--5-5------|-4--------------3\4--4--4--|-----------------5\4--4--4--||--3---2--3-3------|-2--2-3-2-3-2-3-5\2--0--2--|-2-3-2-3-2-3-2-3-3\2--0--2--||------------------|---------------------------|----------------------------| PM.........| PM.............|
|------------------------|-------------|----------------------|----------------||------------------------|-------------|----------------------|----------------||------------------------|-------------|----------------------|---------4--5---||--4---------------------|--5----------|--7-------------------|--2------4--5---||--4---------------------|--5----------|--7-------------------|--2------2--3---||--2---------------------|--3----------|--5-------------------|--0-------------| Dear Mother, dear Father Every thought I'd think you'd disapprove
|----------------|-------------|----------------|---------------||----------------|-------------|----------------|---------------||----------------|-------------|----------------|---------------||--4-------------|--5----------|--2-------------|--7------4--5--||--4-------------|--5----------|--2-------------|--7------4--5--||--2-------------|--3----------|--0-------------|--5------2--3--| Curator,dictator Always censoring my every move
The verses follow timing pattern above The rest of the verse are: F#5 D5 Children are seen but not heard A5 G5 Tear out every thing inspired
|----------------------|---------------------------|----------------------------||----------------------|---------------------------|----------------------------||-------------------5--|---------------------------|----------------------------||-------------------5--|-4--------------3\4--4--4--|-----------------5\4--4--4--||-X-X-X--X---X-X-X--3--|-2--2-3-2-3-2-3-5\2--0--2--|-2-3-2-3-2-3-2-3-3\2--0--2--||-X-X-X--X---X-X-X-----|---------------------------|----------------------------| PM............| PM.............|
|----------------------------|---------------------------------||----------------------------|---------------------------------||----------------------------|---------------------------------||-----------------5\4--4--4--|-------------------------5---4---||-2-3-2-3-2-3-2-3-3\2--0--2--|-2-3-2-3-2-3-2-3-3---2-----------||----------------------------|---------------------------------| PM..............| PM............................|
|--------------------|---------------------------||--------------------|---------------------------||--------------------|---------------------------||--------------------|-4-------------------------||-2---5-5-2----3-3-2-|-2--2-3-2-3-2-3-0--2--0--2-||-0---3-3-0----5-5-0-|---------------------------| PM....................|
|------------------------|---------------------||------------------------|---------------------||------------------------|---------------------||-5----5--5--4--4--------|-2-----------2----2--||-3----3--3--2--2--------|-2-----------2----2--||------------------3p2p0-|-0----3p2p0--0----0--| PM........|
Chorus
Innocence Torn from me without your shelter|--------------------------|---------------------|----------------------||--------------------------|---------------------|----------------------||--------------------------|---------------------|----------------------||--------------------------|-2---------2----2----|--------7-----------7-||-2--2--2--2--X-X-2--2--2--|-2---------2----2----|-5-5-5--5----5-5-5--5-||-0--0--0--0--X-X-0--0--0--|-0----3p0--0----0----|----------------------| PM..................| PM..| PM...| PM...|
Barred reality I'm living blindly|--------------------------|---------------------|------------------------||--------------------------|---------------------|------------------------||--------------------------|---------------------|--------5----5----------||--------------------------|-2---------2----2----|--------5----5----------||-2--2--2--2--X-X-2--2--2--|-2---------2----2----|-0-2-3--3----3----3-3-2-||-0--0--0--0--X-X-0--0--0--|-0----3p0--0----0----|------------------------| PM..................| PM..| PM...| PM...|
|------------------------|||------------------------|||-----------------------o|||-----------------------o|||--2-2-2--2-2-2--2-2-2---|||------------------------|| PM..................|
|---------------------------|----------------------------||---------------------------|----------------------------||---------------------------|----------------------------||-4--------------3\4--4--4--|-----------------5\4--4--4--||-2--2-3-2-3-2-3-5\2--0--2--|-2-3-2-3-2-3-2-3-3\2--0--2--||---------------------------|----------------------------| PM.............| PM.............|
|----------------------------|---------------------------------||----------------------------|---------------------------------||----------------------------|---------------------------------||-----------------5\4--4--4--|-------------------------5---4---||-2-3-2-3-2-3-2-3-3\2--0--2--|-2-3-2-3-2-3-2-3-3---2-----------||----------------------------|---------------------------------| PM..............| PM............................|
|---------------------------|---------------------------||---------------------------|---------------------------||---------------------------|---------------------------||-4--------------5\4--4--4--|-----------------3\2----4--||-2--2-3-2-3-2-3-3\2--0--2--|-2-3-2-3-2-3-2-3-5\4----0--||---------------------------|---------------------------| PM.........| PM.............|
|---------------------------|------------------------------||---------------------------|------------------------------||---------------------------|------------------------------||-4--------------3\2--4--4--|------------------------------||-2--2-3-2-3-2-3-5\4--0--2--|-2-3-2-3-2-3-2-3--2--3--2--3--||---------------------------|------------------------------| PM.........| PM.........................|
|-----------------||-----------------||-----------------||-----------------||--2--3--2-----3--||--------0--1-----| PM...........|
3 times||-------------------|-------------|------------------|---------------||||-------------------|-------------|------------------|---------------||||o------------------|-------------|------------------|--------------o||||o--2-------3-------|--2-------5--|--2-------3-------|--2-----------o||||---2-------3-------|--2-------5--|--2-------3-------|--2------------||||---0--0-0--1--0-0--|--0--0-0--3--|--0--0-0--1--0-0--|--0--0-1-0-1---|| PM.| PM.| PM.| PM.| PM.| PM....|
SOLO
|--------------||--------------||------19b21---||--------------||--------------||--------------|
|---------12-----------12-----------12-----------12----||------12----15-----12----15-----12----15-----12----15-||-14b16--------14b16--------14b16--------14b16---------||------------------------------------------------------||------------------------------------------------------||------------------------------------------------------|
|-12h15p12-------12h15p12-------12h15p12----12h15p14\---||----------12h15----------12h15----------15----------14-||-------------------------------------------------------||-------------------------------------------------------||-------------------------------------------------------||-------------------------------------------------------|
|-14h17p14----19-p14--17-14-17p14----14/20----x-22b24-||----------17---------------------16-------19---------||-----------------------------------------------------||-----------------------------------------------------||-----------------------------------------------------||-----------------------------------------------------|
harm.|-(22)-~-~------|------/------------|-------------------------||---------------|--12-/-------------|-(12)--------------------||---------------|--12/--------------|-(12)-------12-----------||---------------|pull bar up 2 tones|---------------14-----12-||---------------|-------------------|-------------------------||---------------|-------------------|-------------------------|
|------------------------------------|--------------------------||------------------------------------|-----------------------10/||------------------------------------|--------------------------||--14--12----------------------------|--------------------------||----------14--13--12--10--12--12pbr-|--p10--12--10-------------||------------------------------------|---------------12-~-~-----|
|---------------------------------14--||-14b15----14-15p14----14-15--17------||-------------------16----------------||-------------------------------------||-------------------------------------||-------------------------------------|
|-15p14----15--17--17/19-p17p15-----------15/||-------17----------------------19p17p15\----||--------------------------------------------||--------------------------------------------||--------------------------------------------||--------------------------------------------|
|-17-p15p14h15p14------------------------------||-----------------17p14/17-17p15p14h15p14------||------------------------------------------16--||----------------------------------------------||----------------------------------------------||----------------------------------------------|
|------------------------------------------||--14--------------------------------------||-----16--14--16-14------14h---16~---11/14-||-------------------16---------------------||------------------------------------------||------------------------------------------|
|--14-------12------10-----9------|----------------------------------||-----------------------------7/9-|--12p10p9--10p9-----10-9----------||-(14)--13------11------9---------|----------------11-------11--7~---||---------------------------------|----------------------------------||---------------------------------|----------------------------------||---------------------------------|----------------------------------|
|-------------------------------|--------------------------|----------||-------------------------------|--------------------------|----------||--9p7p6--7p6-------------------|--------------------------|----------||-------------9p7-9p7p6--7p6----|--6-----------------------|----------||----------------------------9--|----9p7--9p7-5h7-9\-------|----------||-------------------------------|--------------------------|----------|
|--------------------------------|--------------------------------||--------------------------------|--------------------------------||------------6----7----6---------|-------4----5----7----5----4----||-------7-------------------7----|--5-----------------------------||--9-----------------------------|--------------------------------||--------------------------------|--------------------------------|
|--------------------------------|-------------------------------------||--------------------------------|-------------------------------------||-------6----7----9----7----6----|--7---6h7p6--------------------------||--7-----------------------------|-------------9----7----5----4----2---||--------------------------------|-------------------------------------||--------------------------------|-------------------------------------|
|-------------------------------------||-------------------------------------||-------------------------------------||-5p4p0-5p4p0-5p4p0-5p4p0-5p4p0-5p4p0-||-------------------------------------||-------------------------------------|
|---------------------------------||---------------------------------||---------------------------------||-7p5p0-7p5p0-7p5p0-7p5p0-7p5p0-7p||---------------------------------||---------------------------------|
|----------------------------------------||----------------------------------------||----------------------------------------||-9p7p0-9p7p0-9p7p0-9/11p9p0-11p9p0-11p9h||----------------------------------------||----------------------------------------|
|------------------------------------|----------|---------||------------------------------------|----------|---------||-----------------------------11\----|----------|---------||-11/12p11p0-12p11p0-12p11p0---------|----------|---------||------------------------------------|----------|---------||------------------------------------|----------|---------|
|-17p12----12h17p12-----12h17p12-12h17p12----12-12h17p12-||-------15-----------15-------------------15-------------||--------------------------------------------------------||--------------------------------------------------------||--------------------------------------------------------||--------------------------------------------------------|
|--12h17p12----12h17p12---17--12h17p12----12h17p12----||-----------15-------------------------15----------15-||-----------------------------------------------------||-----------------------------------------------------||-----------------------------------------------------||-----------------------------------------------------|
t t t t t t t t|-19p15p12-19p15p12-19p15p12-19p15p12-19p15p12-19p15p12-19p15p12-19p15p12-||-------------------------------------------------------------------------||-------------------------------------------------------------------------||-------------------------------------------------------------------------||-------------------------------------------------------------------------||-------------------------------------------------------------------------|
t t t|-19p15p12-19p15p12-19p15p12h15-12/22b24--r22b24--||-------------------------------------------------||-------------------------------------------------||-------------------------------------------------||-------------------------------------------------||-------------------------------------------------|
|--------------------------------|---------------------------------||--------------------------------|--10----8----7-------------------||------------6----7----6---------|------------------9----7----6----||-------7-------------------7----|---------------------------------||--9-----------------------------|---------------------------------||--------------------------------|---------------------------------|
|--------------------------------|-------------------------------------||--------------------------------|-------------------------------------||-------6------------------------|-------------------------------------||--9---------9----7----9----7----|-5-5-5-5-7-7-7-7-9-9-9-9-10-10-10-10-||--------------------------------|-------------------------------------||--------------------------------|-------------------------------------|
|-----------------------------------------||-----------------------------------------||-7-7-7-7-9-9-9-9-11-11-11-11-12-12-12-12-||-----------------------------------------||-----------------------------------------||-----------------------------------------|
|--------------------------------------------||--------------------------------------------||-12h14p12p0-11h12p11p-0--9h11p9p0-7h9p7p-0--||--------------------------------------------||--------------------------------------------||--------------------------------------------|
|-------------------------------------------||-------------------------------------------||-5h7p5p0-4h5h7p5p0--6h7h9p7p0--7h9h11p9p0--||-------------------------------------------||-------------------------------------------||-------------------------------------------|
Tempo=168
Rhy Fig 3|----------------------------|----------------------------||----------------------------|----------------------------||----------------5\4---4--4--|----------------5\4---4--4--||----------------3\2---0--2--|----------------3\2---0--2--||----------------------------|----------------------------||-0--0-0-0--0-0--------------|-0--0-0-0--0-0--------------| PM...........| PM...........|
|----------------------------|---------------------------||----------------------------|---------------------------||----------------5\4---4--4--|---------------------------||----------------3\2---0--2--|---------------------------||----------------------------|---------------------------||-0--0-0-0--0-0--------------|-0--0-0-0--0-0-0--1--0--1--| PM...........| PM......................|
|----------------------------|----------------------------||----------------------------|----------------------------||----------------5\4---4--4--|----------------5\4------4--||----------------3\2---0--2--|----------------3\2------0--||-2--------------------------|----------------------------||-0--0-0-0--0-0--------------|-0--0-0-0--0-0--------------| PM........| PM...........|
end Rhy Fig 3|----------------------------|--------------------------||----------------------------|--------------------------||-4--------------5\4---4--4--|--------------------------||-2--------------3\2---0--2--|------------------3----3--||----------------------------|------------------3----3--||----0-0-0--0-0--------------|-0--0-0-0--0-0-0--1----1--| PM........| PM...........|
Bridge
I'm in hell without you|----------------------------|----------------------------||----------------------------|----------------------------||----------------5\4---4--4--|----------------5\4---4--4--||----------------3\2---0--2--|----------------3\2---0--2--||----------------------------|----------------------------||-0--0-0-0--0-0--------------|-0--0-0-0--0-0--------------| PM...........| PM...........|
Cannot cope without you two|----------------------------|---------------------------||----------------------------|---------------------------||----------------5\4---4--4--|---------------------------||----------------3\2---0--2--|---------------------------||----------------------------|---------------------------||-0--0-0-0--0-0--------------|-0--0-0-0--0-0-0--1--0--1--| PM...........| PM......................|
Shocked at the world that I see|----------------------------|----------------------------||----------------------------|----------------------------||----------------5\4---4--4--|----------------5\4------4--||----------------3\2---0--2--|----------------3\2------0--||-2--------------------------|----------------------------||-0--0-0-0--0-0--------------|-0--0-0-0--0-0--------------| PM........| PM...........|
Innocent victim, please resque me|----------------------------|--------------------------||----------------------------|--------------------------||-4--------------5\4---4--4--|--------------------------||-2--------------3\2---0--2--|------------------3----3--||----------------------------|------------------3----3--||----0-0-0--0-0--------------|-0--0-0-0--0-0-0--1----1--| PM........| PM...........|
|------------------|------------------|----------------||------------------|------------------|----------------||------------------|------------------|----------------||-------------4----|-------------4----|----------------||-2--------2--2----|-2--------2--2----|-2--------2-----||-0----1-1-0-------|-0----1-1-0-------|-0----1-1-0-----| PM...| PM...| PM.|
DS al Coda|-------------------|------------------------------|---------------------||-------------------|------------------------------|---------------------||-------------------|------------------------------|---------------------||-------------------|------------------------------|-------------4-------||-----2----------2--|------------------------------|--2----------2----2--||-1-1-0------1-1-0--|--0-0-0--0-0-0--0-0-0--0-0-0--|--0----0--0-------0--| PM.| PM.| PM........................|
Coda
you always knew|------------------|-------------------------|--------------------------||------------------|-------------------------|--------------------------||------------------|-------------------------|--------------------------||--5---------------|----------------------5--|--------------------------||--5---------------|--2-2-2--2--2-2-2--2--3--|--2--3--2--3--------------||--3---------------|-------------------------|--------------0--1--0--1--| PM....................|
|------------------|-------------|------------------|--------------|--------||------------------|-------------|------------------|--------------|--------||------------------|-------------|------------------|--------------|--------||--2-------3-------|--2-------5--|--2-------3-------|--2-----------|-2------||--2-------3-------|--2-------5--|--2-------3-------|--2-----------|-2------||--0--0-0--1--0-0--|--0--0-0--3--|--0--0-0--1--0-0--|--0--0-1-0-1--|-0------| PM.| PM.| PM.| PM.| PM.| PM.....|
Tap to rate this tab
 
# A B C D E F G H I J K L M N O P Q R S T U V W X Y Z