Metallica – The Shortest Straw tab ver. 3

The Shortest Straw
...And Justice for All (1988)
Metallica

|--------------------------------------------------------------------------||--------------------------------------------------------------------------||--------------------------------------------------------------------------||-------------------------------------------------------------------3------||--------2-------------2-------5------3----------2----------2-------1----3-||--0--1--0-------0--1--0----0--3---0--1----0--1--0----0--1--0-----0----0-1-| P.M. P.M. P.M. P.M.
|--------------------------------------------------------------------------||--------------------------------------------------------------------------||--------------------------------------------------------------------------||-------------------------------------------------------------------3------||--------2-------------2-------5------3----------2----------2-------1----3-||--0--1--0-------0--1--0----0--3---0--1----0--1--0----0--1--0-----0----0-1-| P.M. P.M. P.M.
|---------------------------------------||---------------------------------------||---------------------------------------||--------------------------------------3||--------2-------------------2-----5---1||--0--1--0--0--0--000--0--1--0--0--3----|
|---------------------------------------||---------------------------------------||---------------------------------------||----------------------------------3----||--------2-------------------2-----1-5--||--0--1--0--0--0--000--0--1--0--0----3--|
|---------------------------------------||---------------------------------------||---------------------------------------||--------------------------------------3||--------2-------------------2-----5---1||--0--1--0--0--0--000--0--1--0--0--3----|
|----------------------------------------------||----------------------------------------------||----------------------------------------------||----------------------------------3-----------||--------2-------------------2-----1-7--5--3---||--0--1--0--0--0--000--0--1--0--0----5--3--1---|
|---------------------------------------||---------------------------------------||---------------------------------------||--------------------------------------3||--------2-------------------2-----5---1||--0--1--0--0--0--000--0--1--0--0--3----|
|---------------------------------------||---------------------------------------||---------------------------------------||----------------------------------3----||--------2-------------------2-----1-5--||--0--1--0--0--0--000--0--1--0--0----3--|
|---------------------------------------||---------------------------------------||---------------------------------------||--------------------------------------3||--------2-------------------2-----5---1||--0--1--0--0--0--000--0--1--0--0--3----|
|----------------------------------------------||----------------------------------------------||----------------------------------------------||----------------------------------3-----------||--------2-------------------2-----1-7--5--3---||--0--1--0--0--0--000--0--1--0--0----5--3--1---|
|-------------------------||-------------------------||-------------------------||------------3------------||------2-----1--5--3------||--0-1-0--0-----3--1------|
|-------------------------|-------------------------------||-------------------------|-------------------------------||-------------------------|-------------------------------||------------8--7b--8-----|-------------------------------||--2-----/7------------7--|----------------3--3-----------||--0--0-------------------|-0--0---0-0-00-01-01-----------|
2nd Time Tail
|----------------5--5-----------||-0--0---0-0-00-03-03-----------|
3rd Time Tail
|----------------7--7-----------||-0--0---0-0-00-05-05-----------|
|----------------------------------------------||----------------------------------------------||-----------------3---2h3p2p0------------------||-------------2--------------------------------||---2------------------------------------------||---0--0--5------------------------------------|
Thats all for now, may add more later
Please rate this tab:
x1.0